Search tabs:
Browse artists: 0-9 | A | B | C | D | E | F | G | H | I | J | K | L | M | N | O | P | Q | R | S | T | U | V | W | X | Y | Z
/ Dido / No Angel (1999) / Here With Me guitar tab

Artist:Dido
Song:Here with me

Tab by Ken Steyls (kensteyls@hotmail.com)


D2: xx0230



riff
--------------------------------------
--------------------------------------
--------------0---------------0-------
-----------4---------------4----------
--------2---------------2-------------
-----0---------------0----------------

Oh I am what I am, I do what I want

-------------------------------------
--------------------------  ---------
----------1--2-----------1--2--------
-------------------------------------
-------4-------------4---------------
----2-------------2------------------

But I       can't hide

chorus:

        G            Bm
I won't go;  I won't sleep
        D
I can't breathe untill you're resting here with me
        Bm              D
I won't leave;  I can't hide
         D2
I cannot be untill you're resting here with me

verse:

G    Bm                  G
         I don't want to call my friends
                             Bm
for they might wake me from this dream
            G                                          Bm
And I can't leave this bed, risk forgetting all that's been

then play the following:

riff

chorus X 2

riff  (without lyrics)

riff  (with lyrics)

chorus X 2

riff (without lyrics)


enjoy

cheers


Dido albums
2003 Life for Rent
1999 No Angel
No Angel tabs
01Here With Me tabbass tab
02Hunter tabbass tab
03Don't Think of Me tabbass tab
04My Lover's Gone tabbass tab
05All You Want tabbass tab
06Thank You tabbass tab
07Honestly OK tabbass tab
08Slide tabbass tab
09Isobel tabbass tab
10I'm No Angel tabbass tab
11My Life tabbass tab

 

1