Search tabs:
Browse artists: 0-9 | A | B | C | D | E | F | G | H | I | J | K | L | M | N | O | P | Q | R | S | T | U | V | W | X | Y | Z
/ Dismember / Massive Killing Capacity (1995) / Collection By Blood guitar tab

join the death/black tab mailing list by emailing
DISMEMBER: Collection by blood
~
Written by Janne Posti
~
Intro riff
~
|--------------------------------------------------------------------------|
|--------------------------------------------------------------------------|
|--------------------------------------------------------------------------|
|-2----10-9---------2----10-9----7-----------12-----------------12-10-9-10-|
|-2--7------10-9-10-2--7------10---10---9-10----10-9-10----9-10------------|
|-0-----------------0-----------------8-----------------10-----------------|
~
Play 2 times (end with a high B note)
~
Prelude riff
 (first and third time)	       (second time)
|----------------------------||-----------------------------|
|----------------------------||-----------------------------|
|----------------------------||-----------------------------|
|--------------------9-------||--------------------9-7----7-|
|---10-9h10-10-10-10---10910-||---10-9h10-10-10-10-----10---|
|-00--0----0--0--0-----------||-88--8----8--8--8------------|
  ..  .    .  .  .              ..  .    .  .  .
 (fourth time)
|--------------------------------|
|--------------------------------|
|--------------------------------|
|-----------------------9-10-9-7-|
|---10-9h10--10--10--10----------|
|-88--8----10--10--10------------|
  ..  .    ..  ..  ..
Play 4 times
~
Riff 1
~
|------------------------------------------|
|------------------------------------------|
|------------------------------------------|
|------------------------------------------|
|-10--9--7-10--9--7-10--9--7-12----10----9-|
|---00-00-0--88-88-8--99-99-9--1010--1010--|
    .. .. .  .. .. .  .. .. .  . .   . .
Play 2 times
~
Verse riff
							(first time)
|------------------------------------------------------|-------------------|
|------------------------------------------------------|-------------------|
|------------------------------------------------------|-------------------|
|------------------------------------------------------|-------------------|
|-10--9--7--9--10-9-10--9--7--9--10-9-10--9--7--9-10-9-|10--9--7---9-10-9--|
|---00-00-00-00--0-0--00-00-00-00--0-0--88-88-88-8--8-8|--55-55-577-7--7-7-|
    .. .. .. ..  . .  .. .. .. ..  . .  .. .. .. .  . .   .. .. ... .  . .
 (second time)
|-------------------------|
|-------------------------|
|-------------------------|
|-------------------------|
|-12----10----9---9-10-9--|
|---1010--1010---7-7--7---|
    . .   . .    . .  .
Play 2 times
Play Riff 1 2 times, the second time Guitar 2 plays Fill 1:
~
Fill 1
~
|-------------------------------------------|
|-------------------------------------------|
|-------------------------------------------|
|-/9--7--5--/9--7--5--/9--7--5--9b10--9--7--|
|-------------------------------------------|
|-------------------------------------------|
~
Play verse riff 2 times
~
Chorus riff
~
|----------------------------------------------|
|----------------------------------------------|
|----------------------------------------------|
|-9--7---------10-9-7-9------------------------|
|-------10--9-------------10--9--10\---7-10-9--|
|--00-00--00-00---------88--88-88----55-5--7---|
   .. ..  .. ..         ..  .. ..    .. .  .
Play 2 times
~
Solo (Like on the Freezing moon solo, this is my version of the solo.)
~
|-------------------------------------------------------------------------|
|-10/12-10-8-10-10/12-10-12/13-12-10-10/12-10\8-8-15b17-15b17-15b17-15b17-|
|-------------------------------------------------------------------------|
|-------------------------------------------------------------------------|
|-------------------------------------------------------------------------|
|-------------------------------------------------------------------------|
(cont.)
|--------------------------------------------------------------------------|
|-15b171512h13p12h1310h12p10h128h10p8h107h8p7h8-12b13b12-12b13b12-12b13b12-|
|--------------------------------------------------------------------------|
|--------------------------------------------------------------------------|
|--------------------------------------------------------------------------|
|--------------------------------------------------------------------------|
(cont.)
|-15p12-14p12-15p12-14p12-15p12-14p12-15p12-14p12-17p12-15p12-14p12-15p12-|
|-------------------------------------------------------------------------|
|-------------------------------------------------------------------------|
|-------------------------------------------------------------------------|
|-------------------------------------------------------------------------|
|-------------------------------------------------------------------------|
(cont.)
|-17p12-15p12-14h15h17-15p14p12-17b19-17b19-17b19-17b19-17b19-17-------|
|----------------------------------------------------------------15-17-|
|----------------------------------------------------------------------|
|----------------------------------------------------------------------|
|----------------------------------------------------------------------|
|----------------------------------------------------------------------|
(cont.)
|------15-15h1715-20b22-20-19-1717/2019-22b24--b22-22b24b22-22b24b22-22b24-|
|-17h19--------------------------------------------------------------------|
|--------------------------------------------------------------------------|
|--------------------------------------------------------------------------|
|--------------------------------------------------------------------------|
|--------------------------------------------------------------------------|
(cont.)
|-22-20p19p1720p19p1720p19p1720p19p17-19b20b19-19b20b19-19b20b19-----------|
|---------------------------------------------------------------------12---|
|----------------------------------------------------------------12-14--14-|
|--------------------------------------------------------------------------|
|--------------------------------------------------------------------------|
|--------------------------------------------------------------------------|
(cont.)
|-------------------------------------------------------17b19-17b19-17-15\-|
|------------------------------------17------------------------------------|
|-12h14p12h14-11-12-11h12p11-----1112--16b17-16b17b16-14-------------------|
|----------------------------1214------------------------------------------|
|--------------------------------------------------------------------------|
|--------------------------------------------------------------------------|
Play solo 1 time! Heh.
~
Riff 2
		     (first time)
|-------------------|--------------------------------|
|-------------------|--------------------------------|
|-------------------|--------------------------------|
|-9--7--------------|--------------------------------|
|-------10--9--7--7-|10--9--10-12----10----9h10p9h10-|
|--00-00--00-00-00-0|--88-88--8--1010--1010----------|
   .. ..  .. .. .. .   .. ..  .  . .   . .
 (second time)
|---------------------------------|
|---------------------------------|
|---------------------------------|
|-12------------------------------|
|-------10----10--12----10----10\-|
|---1010--1010--10--1010--1010----|
    . .   . .   .   . .   . .
Play 2 times
Play Prelude riff 4 times, ending the fourth time looks like this:
~
|------------|
|------------|
|------------|
|------------|
|---10-910\\-|
|-88--8------|
  ..  .
Play Verse riff 2 times, the second time looks like this:
|--------------------------------------------------------------------------|
|--------------------------------------------------------------------------|
|--------------------------------------------------------------------------|
|------------------7/9-7-5-7-7/9-7-----------------------------------------|
|10--9--7--9--10-9----------------10--9--7--9--10-9--12----10----9--9-10-9-|
|--00-00-00-00--0-0-----------------88-88-88-88--8-8---1010--1010--7-7--7--|
   .. .. .. ..  . .                 .. .. .. ..  . .   . .   . .   . .  .
"Dreams can't last..."
Play Riff 1 2 times, second time Guitar 2 plays Fill 1
Plau Chorus riff 4 times

End with a
|---|
|---|
|---|
|-2-|
|-2-|
|-0-|
.


Dismember albums
1997 Death Metal
1997 Misanthropic
1995 Massive Killing Capacity
1993 Indecent And Obscene
1991 Like An Ever Flowing Stream
Massive Killing Capacity tabs
01I Saw Them Die tabbass tab
08Collection By Blood tabbass tab
09Casket Garden tabbass tab

 

1