Search tabs:
Browse artists: 0-9 | A | B | C | D | E | F | G | H | I | J | K | L | M | N | O | P | Q | R | S | T | U | V | W | X | Y | Z
/ Disturbed / Believe (2002) / Prayer guitar tab

Song: Prayer
Band: Disturbed
From: Believe
By:   Adam Urbz
Mail: ibanezgtr1492@yahoo.com
Tune: Dropped D; Down 1/2 Step

   Main Riff:
Eb|--------------------|--------------------|
Bb|--------------------|--------------------|
Gb|*-------------------|-------------------*|
Db|*-0---0-0--1-0-1-0--|--0---0-0--1-0-1-0-*|
Ab|--0---0-0--1-0-1-0--|--0---0-0--1-0-1-0--|
Db|--0---0-0--1-0-1-0--|--0---0-0--1-0-1-0--|

   Verse: (Variations of this riff)
Eb|--------------------|--------------------|---------------------------|---------------------|
Bb|--------------------|--------------------|---------------------------|---------------------|
Gb|--------------------|--------------------|---------------------------|---------------------|
Db|--0---0-0--0-0-0-0--|--0---0-0--0-0-0-0--|--10---10-10--10-10-10-10--|--0---0-0-13-0-13-0--|
Ab|--0---0-0--0-0-0-0--|--0---0-0--0-0-0-0--|--10---10-10--10-10-10-10--|--0---0-0-13-0-13-0--|
Db|--0---0-0--0-0-0-0--|--0---0-0--0-0-0-0--|--10---10-10--10-10-10-10--|--0---0-0-13-0-13-0--|
   PM.............................................................................

Eb|--------------------|--------------------|---------------------------|---------------------|
Bb|--------------------|--------------------|---------------------------|---------------------|
Gb|--------------------|--------------------|---------------------------|---------------------|
Db|--0---0-0--0-0-0-0--|--0---0-0--0-0-0-0--|--10---10-10--10-10-10-10--|--0---0-0---13---10--|
Ab|--0---0-0--0-0-0-0--|--0---0-0--0-0-0-0--|--10---10-10--10-10-10-10--|--0---0-0---13---10--|
Db|--0---0-0--0-0-0-0--|--0---0-0--0-0-0-0--|--10---10-10--10-10-10-10--|--0---0-0---13---10--|
   PM.............................................................................

   Pre-Chorus:
Eb|--------------------------|
Bb|--------------------------|
Gb|*------------------------*|
Db|*-7\--1---1-1--1-1---/8--*|
Ab|--7\--1---1-1--1-1---/8---|
Db|--7\--1---1-1--1-1---/8---|

   Chorus: (listen to the song to hear the transitions)
Eb|--------------------|--------------------|
Bb|--------------------|--------------------|
Gb|*-10----10----------|----------------5--*|
Db|*-10----10---3--5---|---3-----3---0--5--*|
Ab|---8-----8---3--5---|---3-----3---0--3---|
Db|-------------3--5---|---3-----3---0------|

   Post-Chorus:
Eb|--------------------|--------------------|
Bb|--------------------|--------------------|
Gb|--3---3-3--3-3-3-3--|--3---3-3--3-3-3-3--|
Db|--3---3-3--3-3-3-3--|--3---3-3--3-3-3-3--|
Ab|--1---1-1--1-1-1-1--|--1---1-1--1-1-1-1--|
Db|--------------------|--------------------|

   Break: (just guitar)
Eb|-----------------------------------------------------------|
Bb|-----------------------------------------------------------|
Gb|*---------------------------------------------------------*|
Db|*---------------------------------------------------------*|
Ab|-----------------------------------------------------------|
Db|--2-2--0-2---2-2--0-2----2--0--2----2--0--2-----2---0---3--|

   Bridge: ("Return to me...")
Eb|-----------------------------------------------------------|
Bb|-----------------------------------------------------------|
Gb|*---------------------------------------------------------*|
Db|*-2-2--0-2---2-2--0-2----2--0--2----2--0--2-----2---0---3-*|
Ab|--2-2--0-2---2-2--0-2----2--0--2----2--0--2-----2---0---3--|
Db|--2-2--0-2---2-2--0-2----2--0--2----2--0--2-----2---0---3--|

   Outro:
Eb|--------------------|--------------------|--------------------|-----|
Bb|--------------------|--------------------|--------------------|-----|
Gb|--------------------|--------------------|--------------------|-----|
Db|--0---0-0--0-0-0-0--|--0---0-0--0-0-0-0--|--0---0-0--0-0-0-0--|--0--|
Ab|--0---0-0--0-0-0-0--|--0---0-0--0-0-0-0--|--0---0-0--0-0-0-0--|--0--|
Db|--0---0-0--0-0-0-0--|--0---0-0--0-0-0-0--|--0---0-0--0-0-0-0--|--0--|
   PM.................................................................

Another dream that will never come true 
Just to compliment your sorrow 
Another life that I've taken from you 
A gift to add on to your pain and suffering 
Another truth you can never believe 
Has crippled you completely 
All the cries you're beginning to hear 
Trapped in your mind, and the sound is deafening 

Let me enlighten you 
This is the way I pray 

[Chorus]
Living just isn't hard enough 
Burn me alive, inside 
Living my life's not hard enough 
Take everything away 

Another nightmare about to come true 
Will manifest tomorrow 
Another love that I've taken from you 
Lost in time, on the edge of suffering 
Another taste of the evil I breed 
Will level you completely 
Bring to life everything that you fear 
Live in the dark, and the world is threatening 

Let me enlighten you 
This is the way i pray 

[chorus]

Return to me 
Leave me no one 
Turn to me 
Return to me 
Cast aside 

You've made me turn away 

[chorus]


[Thanks to livingsoul777@hotmail.com & www.azlyrics.com for these lyrics]


Disturbed albums
2005 Ten Thousand Fists
2002 Believe
2000 The Sickness
Believe tabs
01Prayer tabbass tab
02Liberate tabbass tab
03Awaken tabbass tab
04Believe tabbass tab
05Remember tabbass tab
06Intoxication tabbass tab
07Rise tabbass tab
08Mistress tabbass tab
09Breathe tabbass tab
10Bound tabbass tab
11Devour tabbass tab
12Darkness tabbass tab

 

1