Search tabs:
Browse artists: 0-9 | A | B | C | D | E | F | G | H | I | J | K | L | M | N | O | P | Q | R | S | T | U | V | W | X | Y | Z
/ Disturbed / Ten Thousand Fists (2005) / Deify guitar tab

Artist: Disturbed
Song: Deify (well Spelled!)
Album: Ten Thousands Fists
Tuning: Drop C (CGCFAD)

Here's George W. Bush song!

Intro
|------------------------------------------------------------------------|
|------------------------------------------------------------------------|
|--55-55-55-55-----------------------------------------------------------|
|--55-55-55-55--5555--33-33-33-33--1-5-33-33-33-33-3333-11-11-00-00-333--|
|--33-33-33-33--5555--33-33-33-33--1-5-33-33-33-33-3333-11-11-00-00-333--|
|---------------5555--33-33-33-33--1-5-33-33-33-33-3333-11-11-00-00-333--|

Pre-Verse
|---------------------------------------|
|---------------------------------------|
|---------------------------------------|
|---------------------------------------|
|--10-10-8-10-11-10-8-10-10-10-11-10-8--|<
|--10-10-8-10-11-10-8-10-10-10-11-10-8--|< Play these notes very fast

Verse
|---------------------------|
|---------------------------|
|---------------------------| 4x
|---------------------------|
|--3333334444---------------|
|------------5555000088886--|
PM .......................

then:
|---------------------------|
|---------------------------|
|--5555556666---------------| 4x
|--55555566665555000088886--|
|--33333344445555000088886--|
|------------5555000088886--|

Pre-Chorus
|----------------|
|----------------|
|----------------| 4x
|--6--8--5-6-85--|
|--6--8--5-6-85--|
|--6--8--5-6-85--|

Chorus
|------------------------------------------------------------------------|
|------------------------------------------------------------------------|
|--55-55-55-55-----------------------------------------------------------|
|--55-55-55-55--5555--33-33-33-33--1-5-33-33-33-33-3333-11-11-00-00-333--|
|--33-33-33-33--5555--33-33-33-33--1-5-33-33-33-33-3333-11-11-00-00-333--|
|---------------5555--33-33-33-33--1-5-33-33-33-33-3333-11-11-00-00-333--|

Pre-Verse

Verse

Pre-Chorus

Chorus

Interlude
|-----------------------------------|
|-----------------------------------|
|-----------------------------------|
|-----------------------------------|
|----------11----13----11----11/12--|
|--10101010--1010--1010--1010-------|

then:
|------------------------------------|
|------------------------------------|
|------------------------------------|
|------------------------------------|
|----------16----16--------13----13--|
|--13131313--1313--11111111--1111----|
   ^ ^ ^ ^   ^ ^   ^ ^ ^ ^   ^ ^
    this is 13       this is 11


Disturbed albums
2005 Ten Thousand Fists
2002 Believe
2000 The Sickness
Ten Thousand Fists tabs
01Ten Thousand Fists tabbass tab
02Just Stop tabbass tab
03Guarded tabbass tab
04Deify tabbass tab
05Stricken tabbass tab
06I'm Alive tabbass tab
07Sons of Plunder tabbass tab
08Overburdened tabbass tab
09Decadence tabbass tab
10Forgiven tabbass tab
11Land of Confusion tabbass tab
13Pain Redefined tabbass tab
14Avarice tabbass tab

 

1