Search tabs:
Browse artists: 0-9 | A | B | C | D | E | F | G | H | I | J | K | L | M | N | O | P | Q | R | S | T | U | V | W | X | Y | Z
/ Disturbed / Ten Thousand Fists (2005) / Guarded guitar tab

Here is Disturbed's New song Guarded from the album 10 Thousand Fists! Enjoy!

Tuning: C, G, C, F, A, D


Intro
  Q=137
  D5 N.C.                            D5 N.C.
 4/4
  Gtr I
           PM----|       PM|                  PM----|    PM|
  Q   S  S S S S S  S  S S S  S  S   Q   S  S S S S S  E S S   E
|----------------------------------|-----------------------------|
|----------------------------------|-----------------------------|
|----------------------------------|-----------------------------|
|----------------------------------|-----------------------------|
|-0--------------------------------|-0---------------------------|
|-0--10h12-0-0-0-0-10h12-0-0-10h12-|-0--10h12-0-0-0-0-/8-0-0-/13-|


  D5 N.C.                            D5 N.C.
           PM----|       PM|                  PM----------------|
  Q   S  S S S S S  S  S S S  S  S   Q   S  S S S S S S S S S S S
|----------------------------------|-------------------------------||
|----------------------------------|-------------------------------||
|----------------------------------|-------------------------------||
|----------------------------------|-------------------------------||
|-0--------------------------------|-0-----------------------------||
|-0--10h12-0-0-0-0-10h12-0-0-10h12-|-0--10h12-0-0-0-0-6-6-6-6-6-6--||


   Chorus
    D5 N.C.                            D5 N.C.
             PM----|       PM|                  PM----|    PM|
    Q   S  S S S S S  S  S S S  S  S   Q   S  S S S S S  E S S   E
||-----------------------------------|-----------------------------|
||o----------------------------------|-----------------------------|
||-----------------------------------|-----------------------------|
||-----------------------------------|-----------------------------|
||o-0--------------------------------|-0---------------------------|
||--0--10h12-0-0-0-0-10h12-0-0-10h12-|-0--10h12-0-0-0-0-/8-0-0-/13-|


  D5 N.C.                            D5 N.C.
           PM----|       PM|                  PM----------------|
  Q   S  S S S S S  S  S S S  S  S   Q   S  S S S S S S S S S S S
|----------------------------------|--------------------------------||
|----------------------------------|-------------------------------o||
|----------------------------------|--------------------------------||
|----------------------------------|--------------------------------||
|-0--------------------------------|-0-----------------------------o||
|-0--10h12-0-0-0-0-10h12-0-0-10h12-|-0--10h12-0-0-0-0-6-6-6-6-6-6---||


    N.C.                        Dsus4/G
    E E E E E E E E   E E E E E E E E
||----0-----0-----0-|-----0-----------|
||o-----3-----3-----|-3-----3---3-3-3-|
||------------------|-----------2-2-2-|
||------------------|-----------5-5-5-|
||o-----------------|-----------5-5-5-|
||--0-----3-----0---|---0-----0-5-5-5-|


  N.C.                        Dsus4/G
  E E E E E E E E   E E E E E E E E
|---0-----0-----0-|-----0------------||
|-----3-----3-----|-3-----3---3-3-3-o||
|-----------------|-----------2-2-2--||
|-----------------|-----------5-5-5--||
|-----------------|-----------5-5-5-o||
|-0-----3-----0---|---0-----0-5-5-5--||


   Verse
    $
    N.C.                        Bb5     N.C.                        Bb5
    Gtr I
    W                 H       E E E E   W                 H       E E E E
||------------------|-----------------|-----------------|------------------||
||o-----------------|-----------------|-----------------|-----------------o||
||------------------|-----------------|-----------------|------------------||
||------------------|-----------8-8-8-|-----------------|-----------8-8-8--||
||o-----------------|-----------8-8-8-|-----------------|-----------8-8-8-o||
||------------------|-----------8-8-8-|-----------------|-----------8-8-8--||
|
|   Gtr II
|   E E E E E E E E   E E E E E E E E   E E E E E E E E   E E E E E E E E
||----0-----0-----0-|-----0-------0---|---0-----0-----0-|-----0-------0----||
||o-----3-----3-----|-3-----3-------3-|-----3-----3-----|-3-----3-------3-o||
||------------------|-----------------|-----------------|------------------||
||------------------|-----------------|-----------------|------------------||
||o-----------------|---0-------0-----|-----------------|---0-------0-----o||
||--0-----3-----0---|---------0-------|-0-----3-----0---|---------0--------||


  F5AbG5    F5AbG5      F5                    F5AbG5    F5AbG5      F5
                                                               2/4
  Gtr I
  E E E E E E E E   S S E S S E S S E S S E   E E E E E E E E   S S E S S E
|-----------------|-------------------------|-----------------|-------------||
|-----------------|-------------------------|-----------------|-------------||
|-----------------|-------------------------|-----------------|-------------||
|-3-6-5---5-3-6-5-|-x-x-3-x-x-3-x-x-3-x-x-3-|-3-6-5---5-3-6-5-|-x-x-3-x-x-3-||
|-3-6-5---5-3-6-5-|-x-x-3-x-x-3-x-x-3-x-x-3-|-3-6-5---5-3-6-5-|-x-x-3-x-x-3-||
|-3-6-5---5-3-6-5-|-x-x-3-x-x-3-x-x-3-x-x-3-|-3-6-5---5-3-6-5-|-x-x-3-x-x-3-||


   Pre-Chorus
                                                           To Coda
    D5   N.C.Eb5       N.C.F5       D5   N.C.Eb5       N.C.F5 N.C.
   4/4
    H    E E Q    +Q   E E Q  E E   H    E E Q    +Q   E E Q   E   E
||-------3-2----|------3-2--------|------3-2----|------3-2--------------||
||o-------------|-----------------|-------------|----------------------o||
||--------------|-----------------|-------------|-----------------------||
||--0--------1--|-(1)------3--3-3-|-0--------1--|-(1)------3------------||
||o-0--------1--|-(1)------3--3-3-|-0--------1--|-(1)------3------<5>--o||
||--0--------1--|-(1)------3--3-3-|-0--------1--|-(1)------3--<5>-------||


   Chorus
    D5 N.C.                            D5 N.C.
             PM----|       PM|                  PM----|    PM|
    Q   S  S S S S S  S  S S S  S  S   Q   S  S S S S S  E S S   E
||-----------------------------------|-----------------------------|
||o----------------------------------|-----------------------------|
||-----------------------------------|-----------------------------|
||-----------------------------------|-----------------------------|
||o-0--------------------------------|-0---------------------------|
||--0--10h12-0-0-0-0-10h12-0-0-10h12-|-0--10h12-0-0-0-0-/8-0-0-/13-|


  D5 N.C.                            D5 N.C.
           PM----|       PM|                  PM----------------|
  Q   S  S S S S S  S  S S S  S  S   Q   S  S S S S S S S S S S S
|----------------------------------|--------------------------------||
|----------------------------------|-------------------------------o||
|----------------------------------|--------------------------------||
|----------------------------------|--------------------------------||
|-0--------------------------------|-0-----------------------------o||
|-0--10h12-0-0-0-0-10h12-0-0-10h12-|-0--10h12-0-0-0-0-6-6-6-6-6-6---||


                                                         D.S. al Coda
                              Dsus4/G N.C.                      Dsus2Bb5
  E E E E E E E E   E E E E E E E E   E E E E E E E E   E E E E  Q   q
|---0-----0-----0-|-----0-----------|---0-----0-----0-|-----0------------||
|-----3-----3-----|-3-----3---3-3-3-|-----3-----3-----|-3-----3--3-------||
|-----------------|-----------2-2-2-|-----------------|----------2-------||
|-----------------|-----------5-5-5-|-----------------|---------(2)--8---||
|-----------------|-----------5-5-5-|-----------------|--------------8---||
|-0-----3-----0---|---0-----0-5-5-5-|-0-----3-----0---|---0------0---8---||


 Bridge
  &
  D5                  N.C.
  W          +H.       Q
|----------|---------------|
|----------|---------------|
|----------|---------------|
|-0--------|-(0)-----------|
|-0--------|-(0)-----------|
|-0--------|-(0)------12\--|


    D5 N.C.                      Bb5   A5
         PM----|   PM    PM----|
    Q  E S S E E E E   E S S E E E. E. E
||-------------------|-------------------|
||o------------------|-------------------|
||-------------------|-------------------|
||--0----------------|-----------8--8--7-|
||o-0----------------|-----------8--8--7-|
||--0----0-0-0-0---0-|---0-0-0-0-8--8--7-|


  D5 N.C.                      C5      A5
       PM----|   PM    PM----|
  Q  E S S E E E E   E S S E E  E.  E. E
|------------------|---------------------|
|------------------|---------------------|
|------------------|---------------------|
|-0----------------|-----------10--10--7-|
|-0----------------|-----------10--10--7-|
|-0----0-0-0-0---0-|---0-0-0-0-10--10--7-|


  D5 N.C.                      Bb5   A5
       PM----|   PM    PM----|
  Q  E S S E E E E   E S S E E E. E. E
|------------------|-------------------|
|------------------|-------------------|
|------------------|-------------------|
|-0----------------|-----------8--8--7-|
|-0----------------|-----------8--8--7-|
|-0----0-0-0-0---0-|---0-0-0-0-8--8--7-|


  F5               E5      C5
  Q  E E E E E E   E E E E  E.  E.  E   3x
|----------------|----------------------||
|----------------|---------------------o||
|----------------|----------------------||
|-3--3-3-3-3-3-3-|-2-2-2-2-10--10--10---||
|-3--3-3-3-3-3-3-|-2-2-2-2-10--10--10--o||
|-3--3-3-3-3-3-3-|-2-2-2-2-10--10--10---||


 Breakdown
  D5 N.C.                      D5 N.C.
  Gtr III
  q  H.                        q  H.
|----------------------------|-----------------------------|
|----------------------------|-----------------------------|
|----------------------------|-----------------------------|
|----------------------------|-----------------------------|
|-0--------------------------|-0---------------------------|
|-0--------------------------|-0---------------------------|
|
| Gtr IV                                      Gtr I
|        PM----|     PM|              PM----------------|
| Q  S S S S S S S S S S S S   Q  S S S S S S S S S S S S
|----------------------------|-----------------------------|
|----------------------------|-----------------------------|
|----------------------------|-----------------------------|
|----------------------------|-----------------------------|
|----------------------------|-----------------------------|
|-0--3h5-0-0-0-0-3h5-0-0-3h5-|-0--3h5-0-0-0-0-6-6-6-6-6-6--|


  D5 F5G5N.C.    F5G5N.C.F5G5  D5 F5G5N.C.    F5G5N.C.F5G5
  Gtr I
         PM----|     PM|              PM----|     PM|
  Q  S S S S S S S S S S S S   Q  S S S S S S S S S S S S
|----------------------------|-----------------------------|
|----------------------------|-----------------------------|
|----------------------------|-----------------------------|
|----------------------------|-----------------------------|
|-0--3h5---------3h5-----3h5-|-0--3h5---------3h5-----3h5--|
|-0--3h5-0-0-0-0-3h5-0-0-3h5-|-0--3h5-0-0-0-0-3h5-0-0-3h5--|


  D5 F5G5N.C.    F5G5N.C.F5G5  D5 F5G5N.C.
         PM----|     PM|              PM----------------|
  Q  S S S S S S S S S S S S   Q  S S S S S S S S S S S S
|----------------------------|-----------------------------||
|----------------------------|-----------------------------||
|----------------------------|-----------------------------||
|----------------------------|-----------------------------||
|-0--3h5---------3h5-----3h5-|-0--3h5----------------------||
|-0--3h5-0-0-0-0-3h5-0-0-3h5-|-0--3h5-0-0-0-0-6-6-6-6-6-6--||


 Out-Chorus
  D5 N.C.                      Bb5   Bb° D5 N.C.                      Bb5   Bb°
  Q  E S S E E E E   E S S E E E. E. E   Q  E S S E E E E   E S S E E E. E. E
|------------------|-------------------|------------------|--------------------|
|------------------|-------------------|------------------|--------------------|
|------------------|-------------------|------------------|--------------------|
|-0----------------|-----------8--8--8-|-0----------------|-----------8--8--8--|
|-0----------------|-----------8--8--7-|-0----------------|-----------8--8--7--|
|-0----0-0-0-0---0-|---0-0-0-0-8--8--8-|-0----0-0-0-0---0-|---0-0-0-0-8--8--8--|


  D5 N.C.                      Bb5   Bb° D5 N.C.                      Bb5   Bb°
  Q  E S S E E E E   E S S E E E. E. E   Q  E S S E E E E   E S S E E E. E. E
|------------------|-------------------|------------------|--------------------|
|------------------|-------------------|------------------|--------------------|
|------------------|-------------------|------------------|--------------------|
|-0----------------|-----------8--8--8-|-0----------------|-----------8--8--8--|
|-0----------------|-----------8--8--7-|-0----------------|-----------8--8--7--|
|-0----0-0-0-0---0-|---0-0-0-0-8--8--8-|-0----0-0-0-0---0-|---0-0-0-0-8--8--8--|


      N.C.
  +E  E H.        W
|---------------|------*|
|---------------|------*|
|---------------|------*|
|-(8)-----------|------*|
|-(7)-----------|------*|
|-(8)-----------|------*|




--------------------------------------------------------------------------------


Duration Legend
---------------
W - whole; H - half; Q - quarter; E - 8th; S - 16th; T - 32nd; X - 64th; a - acciaccatura
+ - note tied to previous; . - note dotted; .. - note double dotted
Uncapitalized letters represent notes that are staccato (1/2 duration)
Irregular groupings are notated above the duration line
Duration letters will always appear directly above the note/fret number it represents the
duration for.  Duration letters with no fret number below them represent rests.  Multi-
bar rests are notated in the form Wxn, where n is the number of bars to rest for.  Low
melody durations appear below the staff

Tablature Legend
----------------
 h   - hammer-on
 p   - pull-off
 b   - bend
 pb  - pre-bend
 r   - bend release (if no number after the r, then release immediately)
 /\  - slide into or out of (from/to "nowhere")
 s   - legato slide
 S   - shift slide
 - natural harmonic
[n]  - artificial harmonic
n(n) - tapped harmonic
 ~   - vibrato
 tr  - trill
 T   - tap
 TP  - trem. picking
 PM  - palm muting
\n/  - tremolo bar dip; n = amount to dip
 \n  - tremolo bar down
 n/  - tremolo bar up
/n\  - tremolo bar inverted dip
 =   - hold bend; also acts as connecting device for hammers/pulls
 <> - volume swell (louder/softer)
 x   - on rhythm slash represents muted slash
 o   - on rhythm slash represents single note slash

Misc Legend
-----------
 |  - bar
||  - double bar
||o - repeat start
o|| - repeat end
*|  - double bar (ending)
 :  - bar (freetime)
 $  - Segno
 &  - Coda
Tempo markers -  = BPM(8/16=s8/s16), where s8 = swing 8ths, s16 = swing 16ths


Disturbed albums
2005 Ten Thousand Fists
2002 Believe
2000 The Sickness
Ten Thousand Fists tabs
01Ten Thousand Fists tabbass tab
02Just Stop tabbass tab
03Guarded tabbass tab
04Deify tabbass tab
05Stricken tabbass tab
06I'm Alive tabbass tab
07Sons of Plunder tabbass tab
08Overburdened tabbass tab
09Decadence tabbass tab
10Forgiven tabbass tab
11Land of Confusion tabbass tab
13Pain Redefined tabbass tab
14Avarice tabbass tab

 

1