Search tabs:
Browse artists: 0-9 | A | B | C | D | E | F | G | H | I | J | K | L | M | N | O | P | Q | R | S | T | U | V | W | X | Y | Z
/ Disturbed / Ten Thousand Fists (2005) / Overburdened guitar tab

Band- Disturbed
Song- Overburdened
Album- Ten Thousand Fists
Tuning- Drop C

Most of this is pretty accurate.The chorus is kinda sketchy and sorry no solo YET!
I'll try to post it as soon as I figure it out.Please give comments or suggestions!
I know there are some mistakes.

Intro- the song begins with a cool bass lick that he repeats then the guitar comes
in with this.
|----------------------------------------------|
|----------------------------------------------|
|----------------------------------------------|
|-0~~~~~~-------0-0------0~~~~~----9----6------|
|-0~~~~~~-------0-0------0~~~~~----9----6------|
|-0~~~~~~-------0-0------0~~~~~----9----6--12/-|
P.M.            ...

Verse
|--------------------------------------------------|
|--------------------------------------------------|
|--------------------------------------------------|
|-0--0-0--0--0-0-0--0-3-5--0--0-0--0--0-0-0--5-5-0-|
|-0--0-0--0--0-0-0--0-3-5--0--0-0--0--0-0-0--5-5-0-|
|-0--0-0--0--0-0-0--0-3-5--0--0-0--0--0-0-0--5-5-0-|
P.M. ...  .  .....  .....     ...  .  .....  ...

|------------------------------|
|------------------------------|
|------------------------------|
|-0-0--0--0-0-0--0-3-5--9----6-|
|-0-0--0--0-0-0--0-3-5--9----6-|
|-0-0--0--0-0-0--0-3-5--9----6-|
P.M..  .  .....  .....

Pre-Chorus-with wah pedal
|------------------------------|
|------------------------------|
|------------------------------|
|------------------------------|
|-7-10-7-9-7-5-7--7-10-7-9-7-5-|
|------------------------------|

Chorus
|------------------------------------------|
|------------------------------------------|
|------------------------------------------|
|-0-0-6--0--3-3--0-3-5--0-0-6--0--3--5-5-3-|
|-0-0-6--0--3-3--0-3-5--0-0-6--0--3--5-5-3-|
|-0-0-6--0--3-3--0-3-5--0-0-6--0--3--5-5-3-|
P.M..                   ...

|---------------------------------------------|
|---------------------------------------------|
|---------------------------------------------|
|-0-0-6--0--3-3--0-3-5-6-6-6--8-6-9-9-9-9-9-9-|
|-0-0-6--0--3-3--0-3-5-6-6-6------9-9-9-9-9-9-|
|-0-0-6--0--3-3--0-3-5-6-6-6------9-9-9-9-9-9-|
P.M..                               .....

Fill
|--------------------------|--------|
|------------x2------------|--------|
|--------------------------|--------|
|-0--0-0--0--0-0-0--0-0--0-|-9----6-|
|-0--0-0--0--0-0-0--0-0--0-|-9----6-|
|-0--0-0--0--0-0-0--0-0--0-|-9----6-|
P.M  ...  .  .....  ...

Verse 2
|-------------------------------------------------|
|-------------------------------------------------|
|-------------------------------------------------|
|-0--0-0--0--0-0-0--0-3-5-0--0-0--0--0-0-0--5-5-3-|
|-0--0-0--0--0-0-0--0-3-5-0--0-0--0--0-0-0--5-5-3-|
|-0-----------------------0-----------------------|

|--------------------------------------------------|
|--------------------------------------------------|
|--------------------------------------------------|
|-0--0-0--0--0-0-0--0-3-5--9-9-9-9-9-9-6-6-6-6-6-6-|
|-0--0-0--0--0-0-0--0-3-5--9-9-9-9-9-9-6-6-6-6-6-6-|
|-0------------------------9-9-9-9-9-9-6-6-6-6-6-6-|

Play Pre-Chorus

Play Chorus

And........that's all know for now.I'll try to post the bridge,solo,and backround
guitar parts later.Please give comments and suggestions!!


Disturbed albums
2005 Ten Thousand Fists
2002 Believe
2000 The Sickness
Ten Thousand Fists tabs
01Ten Thousand Fists tabbass tab
02Just Stop tabbass tab
03Guarded tabbass tab
04Deify tabbass tab
05Stricken tabbass tab
06I'm Alive tabbass tab
07Sons of Plunder tabbass tab
08Overburdened tabbass tab
09Decadence tabbass tab
10Forgiven tabbass tab
11Land of Confusion tabbass tab
13Pain Redefined tabbass tab
14Avarice tabbass tab

 

1