Search tabs:
Browse artists: 0-9 | A | B | C | D | E | F | G | H | I | J | K | L | M | N | O | P | Q | R | S | T | U | V | W | X | Y | Z
/ Disturbed / Ten Thousand Fists (2005) / Pain Redefined guitar tab

Disturbed - Pain Redefined
Tabbed by Freaking Out
Tuning - CGCFAD

Intro (guitar1 with delay effect)
D|---------------------|
A|---------------------|
F|---------------------|
C|---------------------|   Not to sure on this bit.
G|-000-4--44-111-3--33-|   Either way, Palm mute it.
C|-000-4--44-111-3--33-|


Pre-Verse (guitar1)
D|----------------------------|
A|----------------------------|
F|----------------------------|
C|----------------------------|
G|----------------------------|
C|-555-7-555-3-555-7-555-7562-|   Palm mute this section.


Pre-Verse (guitar2)
D|---------------------------------|
A|---------------------------------|
F|-xxx-9-xxx-7-xx-5-xxx-3-xx-5-x-3-|
C|-xxx-x-xxx-x-xx-x-xxx-x-xx-x-x-x-|
G|-xxx-7-xxx-5-xx-3-xxx-1-xx-3-x-1-|
C|---------------------------------|

Verse (guitar1)
D|---------------------------------------------------------|
A|---------------------------------------------------------| Palm mute this.
F|---------------------------------------------------------|
C|---------------------------------------------------------|
G|---------------------------------------------------------|
C|-5-5-5--5-5-55-5-5-5--5-5-55-1-1-1--1-1-11-3-3-3--3-3-33-|

Verse (guitar2)
D|-----------------------------|
A|-----------------------------|
F|-7---9---5~----7---9-10---5~-|
C|-x---x---x~----x---x-x----x~-|
G|-5---7---3~----5---7-8----3~-|
C|-----------------------------|

Pre-Chorus (both guitars)
D|---------------------------------------------------------------------|
A|---------------------------------------------------------------------|
F|---------------------------------------------------------------------|
C|---------------------------------------------------------------------|
G|-5-8-5-5-5-5-5-555-5-10-5-5-5-5-5-555-5-12-5-5-5-5-5-555-3-3-3/8-8-8-|
C|-5-8-5-5-5-5-5-555-5-10-5-5-5-5-5-555-5-12-5-5-5-5-5-555-3-3-3/8-8-8-|

Chorus (guitar1)
D|----------------------------------|
A|----------------------------------|
F|----------------------------------|
C|-5-5-5-3-3-3-8-8-8-8-1-1-1-0-0-44-|
G|-5-5-5-3-3-3-8-8-8-8-1-1-1-0-0-44-|
C|-5-5-5-3-3-3-8-8-8-8-1-1-1-0-0-44-|

Chorus (guitar2)
D|----------------------------|
A|----------------------------|
F|-777-555-101010-333-555-----|
C|-xxx-xxx-x-x-x--xxx-xxx-----|
G|-555-333-8-8-8--111-333-----|
C|----------------------------|

Bridge (guitar2)
D|-----------------|
A|-----------------|  I only have guitar2 figured out so far.
F|-5---6---5---7---|  The rest will be up soon.
C|-x---x---x---x---|
G|-3---4---3---5---|
C|-----------------|

Bridge - Part 2 (both guitars)
D|-------------------------------------|
A|-------------------------------------|
F|-------------------------------------|
C|-5--3--8--3--5--3-5-3--8--3--5--33-3-|
G|-5--3--8--3--5--3-5-3--8--3--5--33-3-|
C|-5--3--8--3--5--3-5-3--8--3--5--33-3-|

Thats all so far. You can tweak around with it to make it
perfect. I know its not perfect, but its around those lines. Enjoy this
amazing song!


Disturbed albums
2005 Ten Thousand Fists
2002 Believe
2000 The Sickness
Ten Thousand Fists tabs
01Ten Thousand Fists tabbass tab
02Just Stop tabbass tab
03Guarded tabbass tab
04Deify tabbass tab
05Stricken tabbass tab
06I'm Alive tabbass tab
07Sons of Plunder tabbass tab
08Overburdened tabbass tab
09Decadence tabbass tab
10Forgiven tabbass tab
11Land of Confusion tabbass tab
13Pain Redefined tabbass tab
14Avarice tabbass tab

 

1