Search tabs:
Browse artists: 0-9 | A | B | C | D | E | F | G | H | I | J | K | L | M | N | O | P | Q | R | S | T | U | V | W | X | Y | Z
/ Disturbed / The Sickness (2000) / Violence Fetish guitar tab

Song: "Violence Fetish"
Artist: Disturbed
Album: The Sickness
Transcribed By: Bryan Bramlett (bryanmb87@aol.com)

Tuning: 1/2 Step Down, Drop D
	<> - harmonics
	^ - bend 1/2 step

INTRO:
|---|
|---|
|---|
|-0-|
|-0-|
|-0-|

INTRO B:
|----------------16-|
|-15-18-15-17-15----|
|-------------------|
|-------------------|
|-------------------|
|-------------------|

CHORUS: (not sure about harmonics on this part)
|---------------------------------------------------------------|
|---------------------17^-17-17^---------<2.5>-------17^-17-17^-|
|---------<2.5>-------------------------------------------------|
|0-1-0-0-1-----0-1-0-0----------0-1-0-0-1-----0-1-0-0-----------|
|0-1-0-0-1-----0-1-0-0----------0-1-0-0-1-----0-1-0-0-----------|
|0-1-0-0-1-----0-1-0-0----------0-1-0-0-1-----0-1-0-0-----------|

VERSE:
|--------------------------------------|
|--------------------------------------|
|--------------------------------------|
|-0----0-13-00-0-01-0--0-13-00-0-01000-|
|-0----0-13-00-0-01-0--0-13-00-0-01000-|
|-0----0-13-00-0-01-0--0-13-00-0-01000-|
PM     .    .. . .  .  .    .. . .....

BRIDGE:
|---0---0---0---0---0---0-|
|-------------------------|
|-------------------------|
|-------------------------|
|-3---2---2---8---7---7---|
|-3---2---2---8---7---7---|

INTERLUDE:
|-----------------|
|-----------------|
|------7---8-9-10-|
|------7---8-9-10-|
|-0-0--5-0-6-7--8-|
|-0-0----0--------|
PM. .    .

INTERLUDE 2:
|--------------------|
|--------------------|
|--------------------|
|-0-0--12-0-13-14-15-|
|-0-0--12-0-13-14-15-|
|-0-0--12-0-13-14-15-|

OUTRO:
|---------------------------|
|---------------------------|
|---------------------------|
|-0-1-0-0-1-0--0-1-0-0-0000-|
|-0-1-0-0-1-0--0-1-0-0-0000-|
|-0-1-0-0-1-0--0-1-0-0-0000-|
PM                     ....


Disturbed albums
2005 Ten Thousand Fists
2002 Believe
2000 The Sickness
The Sickness tabs
01Voices tabbass tab
02The Game tabbass tab
03Stupify tabbass tab
04Down With The Sickness tabbass tab
05Violence Fetish tabbass tab
06Fear tabbass tab
07Numb tabbass tab
08Want tabbass tab
09Conflict tabbass tab
10Shout 2000 tabbass tab
11Droppin' Plates tabbass tab
12Meaning of Life tabbass tab

 

1