Search tabs:
Browse artists: 0-9 | A | B | C | D | E | F | G | H | I | J | K | L | M | N | O | P | Q | R | S | T | U | V | W | X | Y | Z
/ Eisregen / Krebskolonie / Das kleine Leben guitar tab

____________________________________
Artist:Eisregen
Song:Das kleine Leben
Album:Krebskolonie
Track:6
Tabbed by:Lycanthroat
                 Bursche_Lenz@web.de
____________________________________

Tuning:(Low to High) D G C F A D

-----------------------------------------------------------------

0:00 - Intro
                                                   x6
D||------------------------------------------------||
A||------------------------------------------------||
F||------------2---1-------------------------------||
C||-------------------4----------5--------5--------||
G||--4-----4------------3---3---------3------------||
D||------------------------------------------------||


0:38 - Intro
                                                       x2
D||--------------------------------------3-------3-----||
A||------------5----4-----2----1-----1--------1--------||
F||----------------------------------------------------||
C||--6----6--------------------------------------------||
G||----------------------------------------------------||
D||----------------------------------------------------||

0:51 Riff  A :
                                                      x2
D||---------------------------------------------------||
A||---------------------------------------------------||
F||---------------6-----------------------------------||
C||---4------4---------4-----2-----2-----0----2-------||
G||---------------------------------------------------||
D||---------------------------------------------------||

1:03 Riff  B :

D||-----------------------------------------------||
A||-----------------------------------------------||
F||-----------------------------------------------||
C||----------------------------5------4------2----||
G||--44444444445555555555-------------------------||
D||--22222222223333333333-------------------------||

D||-----------------------------------------------||
A||-----------------------------------------------||
F||-----------------------------------------------||
C||-----------------------------------------------||
G||--44444444442222222----------------------------||
D||--22222222220000000----------------------------||


1:15 Repeat Riff A  x2

1:26 Repeat Riff B  x1

1:39 Repeat Riff A  x2

1:51 Repeat Riff B  x1

2:02 Riff  C :
                       x4
D||--------------------||
A||--------------------||
F||--------------------||
C||--77777774444444----||
G||--55555552222222----||
D||--------------------||

2:26 Riff D :
                                     x2
D||----------------------------------||
A||----------------------------------||
F||----------------------------------||
C||-7--7--7--777-7--7--7-7444444-----||
G||-5--5--5--555-5--5--5-5222222 ----||
D||----------------------------------||

2:37 Repeat Riff C x2

2:48 End of Riff C
                  x1
D||---------------||
A||---------------||
F||---------------||
C||-7--7--7---777-||
G||-5--5--5---555-||
D||---------------||

2:50  Interlude
                                                                                                                                                                           x4
D||----------------------------------------------------------||
A||----------------------------------------------------------||
F||-------7-----7------7----7-----10-----10-----10------10---||
C||----7-----7------7----7-----10-----10------10-----10------||
G||-5-----5------5----5------8-------8------8------8---------||
D||----------------------------------------------------------||

3:17 Repeat Riff D x2

3:29 Repeat Riff C x4

3:51 Riff E
                             x4
D||--------------------------||
A||--------------------------||
F||-------------2----1----4--||
C||-44444444-----------------||
G||-22222222-----------------||
D||--------------------------||

4:02 Repeat Riff D x1

4:08 Repeat Riff E x4

4:20 Riff F
                                         x7
D||--------------------------------------||
A||--------------------------------------||
F||--------------------------------------||
C||-4444444777777------------------------||
G||-222222255555544444444445555555555----||
D||--------------22222222223333333333----||

5:44 Riff G
                                             x3
D||------------------------------------------||
A||------------------------------------------||
F||------------------------------------------||
C||-4444444477777777711111111-1212121212-----||
G||-2222222255555555599999999-1010101010-----||
D||------------------------------------------||

6:19 Repeat Riff F x1

6:31 Repeat Riff G x2

6:55 Repeat Riff F x1

7:09 Riff H
                               x8
D||----------------------------||
A||----------------------------||
F||----------------5-----------||
C||------------4-------2----1--||
G||--4444444-------------------||
D||--2222222-------------------||

7:48 Repeat Riff C x4

8:12 Repeat Riff D x2

8:24 Repeat Riff C x4

----------------------------------------------------------------


Eisregen albums
Krebskolonie
Krebskolonie tabs
06Das kleine Leben tabbass tab

 

1