Search tabs:
Browse artists: 0-9 | A | B | C | D | E | F | G | H | I | J | K | L | M | N | O | P | Q | R | S | T | U | V | W | X | Y | Z
/ Eve 6 / Horrorscope (2000) / Jet Pack guitar tab

Song: Jet Pack
Band: Eve 6
From: Horrorscope
By:   Adam Urbz
Mail: pickboy87@cs.com
Tune: Dropped D

  Intro:("You're the one...")
E|-----------------------------------------------------(x2)|
B|---------------------------------------------------------|
G|*--------2------------2-2-----------2-----------2-2-----*|
D|*-----2-----2------2-------2-----2-----2-----2-------2--*|
A|---0-----------------------------------------------------|
D|----------------2-------------0-----------0--------------|

E|---------------------------------------------------------|
B|------------------------------------------------------3--|
G|---------2------------2-2-----------2-----------2-----2--|
D|------2-----2------2-------2-----2-----2-----2-----2--2--|
A|---0--------------------------------------------------0--|
D|----------------2-------------4-----------0--------------|

Verse One:(Slighty distorted)
 D5             A5             F#5
   It's you and her and nobody else
                  E5               D5
   The lights are low and she's so ready,
          A5                         A5
   You're already on your way to the door.
 D5              A5              F#5              E5
   You're at the bar, the tender gives you a free drink
                  D5                 A5
   And when she's perfect, you sweat bullets, 
                            A5
   Spill the drink, and you leave.
   D5                  A5              F#5             E5
   Everyone leaves the party, except a gorgeous twenty-something
                D5    A5             A5
   You turn and run,     You call me up.

Chorus:
              C5                  G5         F5
   You're the one stepping on the back of my shoes
              C5        G5      F5
   You're the one using me as a muse
              C5           G5       A5(2)            F5          
   You're the one with the jet pack strapped to your back
            C5    G5              F5       E5
   Ready to go,          Ready to go.

Verse Two:
				     F#5
   So the way you act, is it just an act
                   E5              D5  A5               A5
   Or some strange courtship ritual, a habitual nervous reaction
 D5             A5                F#5
   Hey its just me, set yourself free
                        E5                D5
   Why don't you let me know what's going on
   A5                    A5
   Inside your cluttered head.

Repeat Chorus:(With Riff A)

Bridge:
A5                       E5       D5(2)
   What the hell are you talking about
   D5(2)
   Is that what you would say
   A5           E5         D5(2)
   If I were to wonder out loud
                     D5(2)
   Would it make you turn away
   A5     E5      D5(2)                        
   Just a curious question to think about.

  Solo*:(Backed by bridge chords)
E|-----------------------------------------------(x4)|
B|--17-15-14-15-17-15-14-15-17-15-14-15-17br(17)-14--|
G|*-------------------------------------------------*|
D|*-------------------------------------------------*|
A|---------------------------------------------------|
D|---------------------------------------------------|
  *This is not totally correct since its extremely hard
   to hear every note Jon plays. It sounds fine with the 
   rest of the song,though. It could be played down an octave.

Verse Three:(Appregiate the chords)
 D5                  A5            F#5
   If it was you and me and nobody else
                        E5                  D5
   Would you want me to want to be ready to go
                     A5                   A5
   Would you want to take the lights down low.

Repeat Chorus (With Riff A)

Outro: Use chorus chords with Riff A

  Riff A:(Play after the F5 in 2nd & 3rd Chorus-You'll hear when to play)
E|--------1---0---------|
B|------------------1---|
G|--(0)-----------------|
D|----------------------|
A|----------------------|
D|----------------------|

Chords Used:
    D5 A5 F#5 E5 C5 G5 A5(2) D5(2)
E|--------------------------------|
B|--------------------------------|
G|--7--2---------5----------------|
D|--5--2---4--2--5--5----7-----0--|
A|--5--0---4--2--3--5----7-----0--|
D|---------4--2-----5----7-----0--|


Eve 6 albums
2003 It's All in Your Head
2000 Horrorscope
1998 Eve 6
Horrorscope tabs
01Rescue tabbass tab
02Promise tabbass tab
03On The Roof Again tabbass tab
04Sunset Strip Bitch tabbass tab
05Here's To The Night tabbass tab
06Amphetamines tabbass tab
07Enemy tabbass tab
08Nocturnal tabbass tab
09Jet Pack tabbass tab
10Nightmare tabbass tab
11Bang tabbass tab
12Girl Eyes tabbass tab

 

1