Search tabs:
Browse artists: 0-9 | A | B | C | D | E | F | G | H | I | J | K | L | M | N | O | P | Q | R | S | T | U | V | W | X | Y | Z
/ Eve 6 / It's All in Your Head (2003) / At Least We're Dreaming guitar tab

Band: Eve 6
Song: At Least Were Dreaming
Dropped D Tune (Dadgbe)
-----------------------------------------------------
p=pull off          ////=slide down
^=full bend
-----------------------------------------------------
Intro
---------------------4p0—0-----7p0----------|------7//////------------|
--------7p5p0-------------------------------|-------------------------|
--------------------------------------------|*------------------------|
--------------------------------------------|*------------------------|
--------------------------------------------|-------------------------|
--------------------------------------------|-------------------------|

Riff 1 [palm mute with clean]
--------------------------------------------------------------------------|
---------------5-4-5-----------------------5-5-4-5------------------------|
--------------------------------------------------------------------------|*
---2---2-----------------------7--7---------------------------------------|*
---2---2-----------------------7--7---------------------------------------|
---2---2-----------------------7--7---------------------------------------|

Chorus [you can figure out the strumming]
----------------------------------------------------------------------------------------------------|
----------------------------------------------------------------------------------------------------|
----------------------------------------------------------------------------------------------------|*
-----9-------7-------14-----------------------------------------------------------------------------|*
-----9-------7-------14-----------5--5---------5----------------------------------------------------|
-----9-------7-------14--------------------2----------2---------------------------------------------|

----------------------------------------------------------------------------------------------------|
----------------------------------------------------------------------------------------------------|
----------------------------------------------------------------------------------------------------|
------9----------7--------14------------9------------7----------------------------------------------|
------9----------7--------14------------9------------7----------------------------------------------|
------9----------7--------14------------9------------7----------------------------------------------|
(Riff 1)

Riff 2 [play with Intro]
-----------------------------------------------------------------------------------------------------------------------|
-----------------------------------------------------------------------------------------------------------------------|
-----------------------------------------------------------------------------------------------------------------------|*
----14------------14----9----------------9-----7----------7---------------7----------7----------------------|*
----14------------14----9----------------9-----7----------7---------------7----------7----------------------|
----14—14-14-14-14-14----9---9-9-9-9----9-----7—7-7---7---7-7-7-7---7---7-7---7---7-7-7-7----------|

pm         ……………             ……….                 ……    ………….        ….       …………

That’s about it……
Tabbed by: callingallmonkeys456 [a.k.a Butler]


Eve 6 albums
2003 It's All in Your Head
2000 Horrorscope
1998 Eve 6
It's All in Your Head tabs
01Without You Here tabbass tab
02Think Twice tabbass tab
03At Least We're Dreaming tabbass tab
04Still Here Waiting tabbass tab
05Good Lives tabbass tab
06Hey Montana tabbass tab
07Bring the Night On tabbass tab
08Friend of Mine tabbass tab
09Girlfriend tabbass tab
11Hokis tabbass tab
12Arch Drive Goodbye tabbass tab

 

1