Search tabs:
Browse artists: 0-9 | A | B | C | D | E | F | G | H | I | J | K | L | M | N | O | P | Q | R | S | T | U | V | W | X | Y | Z
/ Eve 6 / It's All in Your Head (2003) / Bring the Night On guitar tab

standard tuning
guitar 1=lead guitar
guitar 2= rythym guitar
h= hammer on
p= pull off
/ = slide up
\\ = slide down
^= bend
x= muted string
(a second guitar is tabbed out for the double recording Jon does on the chorus and outro as well as parts of the verse, intro, and bridge)
INTRO:

       (00:00 - 00:22)
      |-----------------------------------------------------------------------|
Guitar|-----------------------------------------------------------------------|
 One  |---11---9---11---9--7--9--7----12----11----11--------9--7--9--7--------|
      |-9----9---9----9-------------------------------------------------------|
      |----------------------------10----10----10-----10----------------------|
      |-----------------------------------------------------------------------|\\
       (00:11 - 00:22)		                                          }x4
      |-----------------------------------------------------------------------|/
Guitar|-----------------------------------------------------------------------|
 Two  |-----------------------------------------------------------------------|
      |---9~------------------------7~----------------------------------------|
      |---9~------------------------7~----------------------------------------|
      |---7~------------------------5~----------------------------------------|
       -hold chords-	                (play 3rd & 4th time through only)

VERSE 1:
       (00:22 - 00:28) "OK. Iím boring you........"   	
      |------------------------------------------------------------------------|
Guitar|------------------------------------------------------------------------|
  One |--------11--------------11-----11-----------11-----------------9-9-7-9--|
      |-9--9-9----9--9--9-9-9-----9-9------------------------------------------|
      |----------------------------------10--10-10----10-10-7--7-7-7-----------|
      |------------------------------------------------------------------------| P.M.   .......    ............   ....   ...........   ........................
       (00:28 - 00:33) "My mood isnít better yet........"
      |------------------------------------------------------------------------|
      |------------------------------------------------------------------------|
      |--------11--------------11----11----------11---------------7-h-9-p-7----|
      |-9--9-9-----9--9--9-9-9---9-9---------------------------------------h-9-|
      |---------------------------------10--10-10---10-10-7-7-7-7--------------|
      |------------------------------------------------------------------------|
p.m    .......    ............   ...    .........   ..............
       (00:33 - 00:40) "Iím tryiní to let ya know........"   	
      |------------------------------------------------------------------------|
      |------------------------------------------------------------------------|
      |--------11--------------11-----11-----------11---------------9--9--7--9-|
      |-9--9-9-----9--9--9-9-9----9-9------------------------------------------|
      |----------------------------------10--10-10----10-10-7-7-7-7------------|
      |------------------------------------------------------------------------|
p.m.   .......     ...........    ....   .........    .........................            (00:40 - 00:45) "..and your the finest of specimins........"   	
      |------------------------------------------------------------------------|
      |------------------------------------------------------------------------|
      |--------11--------------11-----11-----------11----------9-9-9-9-9-9-9-9-|
      |-9--9-9-----9--9--9-9-9----9-9--------------------------9-9-9-9-9-9-9-9-|
      |----------------------------------10--10-10----10-10----7-7-7-7-7-7-7-7-|
      |------------------------------------------------------------------------|
p.m.   .......     ...........    ...    .........     .....
       (00:43 - 00:45)
      |------------------------------------------------------------------------|
Guitar|------------------------------------------------------------------------|
  Two |--------------------------------------------------------9-9-9-9-9-9-9-9-|
      |--------------------------------------------------------9-9-9-9-9-9-9-9-|
      |--------------------------------------------------------7-7-7-7-7-7-7-7-|
      |------------------------------------------------------------------------|

CHORUS:
       (00:46 - 00:58)"Turn the light off..." \\/ play second time through only \\/
      |--------------------------------------|----------------------------------|
Guitar|--------------------------------------|----------------------------------|   One   |-----------7--h--9---11---11--h--9----|----/12--12--11-11-11-------------|
      |--------------------------------------|----------------------------------|   |     |--------------------------------------|----------------------------------| play  |--------------------------------------|----------------------------------|
3 X    (00:45 - 1:00)	(listen to CD for strumming)
      |-------------------------------------------------------------------------|
Guitar|-------------------------------------------------------------------------|
 Two  |-------------------------------------------------------------------------|
      |---9-9-9-9-9-9-9-9-------7-7-7-7-----------12-12-12-12-------------------|
      |---9-9-9-9-9-9-9-9-------7-7-7-7-----------12-12-12-12-------------------|
      |---7-7-7-7-7-7-7-7-------5-5-5-5-----------10-10-10-10-------------------|

						
       (1:05 - 1:08)
      |-------------------------------------------------------------------------|
Guitar|-------------------------------------------------------------------------|
 One  |-----------------------------------------------x-x--11--x-x--11----------|
      |-------------------------------------------------------------------------|
      |-------------------------------------------------------------------------|
      |-------------------------------------------------------------------------|
      (1:00 - 1:08)
      |-------------------------------------------------------------------------|
Guitar|-------------------------------------------------------------------------|
  Two |-------------------------------------------------------------------------|
      |--9-9-9-9-9-9-9-9---------7-7-7-7--------------x--x--12-x-x-x-12------9\\-|
      |--9-9-9-9-9-9-9-9---------7-7-7-7--------------x--x--12-x-x-x-12------9\\-|
      |--7-7-7-7-7-7-7-7---------5-5-5-5--------------x--x--10-x-x-x-10------7\\-|

VERSE 2:
(Repeat 00:22 - 00:33 then play--)

       (1:19 - 1:30) "Iím tryiní to let ya know......."
      |-------------------------------------------------------------------------|
Guitar|---11-------11-----11------9---------11------11--------------------------|
  One |--------9-------9-------------------------9------9-------9-9-9-9-9-9-9---|
      |---------------------------------------------------------9-9-9-9-9-9-9---|
      |---------------------------------------------------------7-7-7-7-7-7-7---|
      |-------------------------------------------------------------------------|
       (1:28 - 1:30)
      |-------------------------------------------------------------------------|
Guitar|-------------------------------------------------------------------------|
  Two |--------------------------------------------------11----9-9-9-9-9-9-9-9--|
      |--------------------------------------------------11----9-9-9-9-9-9-9-9--|
      |---------------------------------------------------9----7-7-7-7-7-7-7-7--|
      |-------------------------------------------------------------------------|

CHORUS:
(Repeat Chorus 00:45 - 00:58 then play--)
        (1:47 - 1:51)
       |------------------------------------------------------------------------|
       |------------------------------------------------------------------------|
       |------------------------------------------------------------------------|
       |--9-9-9-9-9-9-9-9--------7-7-7-7------------12-12-12-12-----------------|
       |--9-9-9-9-9-9-9-9--------7-7-7-7------------12-12-12-12-----------------|
       |--7-7-7-7-7-7-7-7--------5-5-5-5------------10-10-10-10-----------------|

BRIDGE:

        (1:51 - 2:01)
       |---------------------------------------------------------------------------|
Guitar |---------------------------------------------------------------------------|
  One  |--11-9--11--9-7-9-7--12--11--12--11-9-11-9--11--9--11--9-7-9-7--12--11--12-|
       |-9--9--9---9------------------------------9--9--9----9---------------------|
       |-------------------10--10--10--10-----------------------------10--10--10---|
       |---------------------------------------------------------------------------|

        (2:02 - 2:13) "....day......."
       |-------------------------------------------------------------------|
       |-------------------------------------------------------------------|
       |-------9-9-9-------11-11-11-11-------7-7-7---------9-9-9-9---------|
       |--7-7--------9-9-9--------------5-5--------7-7-7-------------------|
       |--7-7--------9-9-9--------------5-5--------7-7-7-------------------|
       |--5-5--------7-7-7--------------3-3--------5-5-5-------------------|\\
        (2:02 - 2:13)	                                                    } x2
       |-------------------------------------------------------------------|/
Guitar |-------------------------------------------------------------------|
  Two  |-------------------------------------------------------------------|
       |--7-7-------9-9-9---------------5-5--------7-7-7-------------------|
       |--7-7-------9-9-9---------------5-5--------7-7-7-------------------|
       |--5-5-------7-7-7---------------3-3--------5-5-5-------------------|


        (2:14 - 2:18)
       |-------------------------------------------------------------------|
Guitar |-------------------------------------------------------------------|
  One  |------7-7-7--------9-9-9-9------------7-7-7---------9-9-9-9--------|
       |--5-5-------7-7-7----------------5-5----------7-7-7----------------|
       |--5-5-------7-7-7----------------5-5----------7-7-7----------------|
       |--3-3-------5-5-5----------------3-3----------5-5-5----------------|\\
        (2:14 - 2:18)                                                        } x2
       |-------------------------------------------------------------------|/
Guitar |-------------------------------------------------------------------|
  Two  |-------------------------------------------------------------------|
       |--5-5-------7-7-7----------------5-5----------7-7-7----------------|
       |--5-5-------7-7-7----------------5-5----------7-7-7----------------|
       |--3-3-------5-5-5----------------3-3----------5-5-5----------------|


        (2:18 - 2:24)
        |------------------------------------------------------------------|
Guitar  |------------------------------------------------------------------|
  One   |------7-7-7-------9-9-9-9------------7-7-7------------9-9-9-9-----|
        |--7-7-------9-9-9---------------5-5-----------7-7-7---------------|
        |--7-7-------9-9-9---------------5-5-----------7-7-7---------------|
        |--5-5-------7-7-7---------------3-3-----------5-5-5---------------|
         (2:18 - 2:24)
        |------------------------------------------------------------------|
Guitar  |------------------------------------------------------------------|
  Two   |------------------------------------------------------------------|
        |--7-7-------9-9-9---------------5-5-----------7-7-7---------------|
        |--7-7-------9-9-9---------------5-5-----------7-7-7---------------|
        |--5-5-------7-7-7---------------3-3-----------5-5-5---------------|
	

         (2:25 - 2:30) "Ok. Iím boring you....."
        |------------------------------------------------------------------|
Guitar  |------------------------------------------------------------------|
  One   |-----------------------------------------------9------------------|
        |------9~~~-------------------------------------x------------------|
        |------9~~~--- (w/ whammy bar)------------------7------------------|
        |------7~~~--------------------------------------------------------|
	
         (2:34 - 2:38)"break!"
        |------------------------------------------------------------------|
        |------------------------------------------------------------------|
        |-------11-/\\/\\/\\/\\/\\/\\/\\/\\/\\/\\/\\/\\/\\/\\/\\/\\/\\/\\/\\------------------|
        |------------------------------------------------------------------|
        |------------------------------------------------------------------|
        |------------------------------------------------------------------|

CHORUS:
(Repeat Chorus 00:45 - 1:08)

        (3:02 - 3:13) "...day......"
       |-------------------------------------------------------------------|
Guitar |-------------------------------------------------------------------|
  One  |------11----9----11----9--7-^-------12----11----12----11--9-^------|
       |--9------9----9-----9----------------------------------------------|
       |---------------------------------10----10----10----10--------------|
       |-------------------------------------------------------------------|\\
        (3:02 - 3:13)		                                       } x2
       |-------------------------------------------------------------------|/
Guitar |-------------------------------------------------------------------|
  Two  |-------------------------------------------------------------------|
       |--9--9--9--9--9--9--9--9---------7--7--7--7--7--7--7--7------------|
       |--9--9--9--9--9--9--9--9---------7--7--7--7--7--7--7--7------------|
       |--7--7--7--7--7--7--7--7---------5--5--5--5--5--5--5--5------------|

OUTRO:

Guitar One  (3:13 - 3:19)
|----------------------------------------------------------------------------------|
|----------------------------------------------------------------------------------|
|11-11-11-11-9-9-9-11-11-11-11-119-9-9-9-12-12-12-12-9-9-9-12-12-12-12-12-11-11-9-9|
|----------------------------------------------------------------------------------|
|----------------------------------------------------------------------------------|
|----------------------------------------------------------------------------------|
Guitar Two	(3:13 - 3:19)
|----------------------------------------------------------------------------------|
|----------------------------------------------------------------------------------|
|----------------------------------------------------------------------------------|
|----9---9---9---9---9---9---9---9-------7---7---7---7---7---7---7---7-------------|
|----9---9---9---9---9---9---9---9-------7---7---7---7---7---7---7---7-------------|
|----7---7---7---7---7---7---7---7-------5---5---5---5---5---5---5---5-------------|

	
        (3:19 - 3:23)
       |-------------------------------------------------------------------|
Guitar |-------------------------------------------------------------------|
  One  |---11-11-11-11-9-9-9-11-11-11-11-12-12-12-12-11-11-9---------------|
       |-------------------------------------------------------------------|
       |-------------------------------------------------------------------|
       |-------------------------------------------------------------------|
        (3:19 - 3:23)
       |-------------------------------------------------------------------|
Guitar |-------------------------------------------------------------------|
  Two  |-------------------------------------------------------------------|
       |--9---9---9---9---9---9---9---9----7---7---7---7-------------------|
       |--9---9---9---9---9---9---9---9----7---7---7---7-------------------|
       |--7---7---7---7---7---7---7---7----5---5---5---5-------------------|

	
        (3:23 - 3:29) -end-
       |-------------------------------------7-7-7-7-------------------|
Guitar |-------------------------------------5-5-5-5-------------------|
  One  |---------------------------------------------------------------|
       |----2--2-----2--2-----2--2-----2--2----------------------------|
       |----2--2-----2--2-----2--2-----2--2----------------------------|
       |----0--0-----0--0-----0--0-----0--0----------------------------|
   P.M.     ....     ....     ....     ....
        (3:23 - 3:29)
       |----------7---------7--------7-------7-7-7-7-------------------|
Guitar |----------7---------7--------7-------5-5-5-5-------------------|
 Two   |----------9---------9--------9---------------------------------|
       |----------9---------9--------9---------------------------------|
       |----x--x--7--x--x---7--x--x--7--x--x---------------------------|
       |----x--x--7--x--x---7--x--x--7--x--x---------------------------|

 Like most Eve 6 songs this is a fun song for guitar, hope you like tha tab,
 enjoy: ) ,
				 -jhn-
				 -Next Level-


Eve 6 albums
2003 It's All in Your Head
2000 Horrorscope
1998 Eve 6
It's All in Your Head tabs
01Without You Here tabbass tab
02Think Twice tabbass tab
03At Least We're Dreaming tabbass tab
04Still Here Waiting tabbass tab
05Good Lives tabbass tab
06Hey Montana tabbass tab
07Bring the Night On tabbass tab
08Friend of Mine tabbass tab
09Girlfriend tabbass tab
11Hokis tabbass tab
12Arch Drive Goodbye tabbass tab

 

1