Search tabs:
Browse artists: 0-9 | A | B | C | D | E | F | G | H | I | J | K | L | M | N | O | P | Q | R | S | T | U | V | W | X | Y | Z
/ Eve 6 / It's All in Your Head (2003) / Girlfriend guitar tab

song: girlfriend
album: it's all in your head
Tabbed by: Tristan Gruener 

alright, fairly easy song, have fun!

Intro (verse)
e------------------------------------------------
b------------------------------------------------
g------0-0-----0-0-----------0-0-----0-0---0-----
d------5-5-----5-5-----------5-5-----5-5---5-----
a------5-5-----5-5-------3-3-----3-3-----3-------
E--3-3-----3-3-----3-3-5-------------------------

Chorus
(i'm not 100% on this part, but it sounds good to me!)
e---------------|-------------|-------------|-----X2--------
b---------------|-------------|-------------|---------------
g---5--7--2-----|-5-----7--7--|-5--7--2--4--|--5-----2------
d---5--7--2--2--|-5--5--7--7--|-5--7--2--4--|--5--5--2--2---
a---3--5--0--2--|-3--5--5--5--|-3--5--0--2--|--3--5--0--2---
E------------0--|----3--------|-------------|-----3-----0---


..leads back into the verse
e--------
b--------
g--------
d--2--5--
a--2--5--
E--0--3--

this is played over the verse
e----------------------------------------------
b----------------------------------------------
g------0-0-----------------0-0-----------------
d----------------0-0----------------0-0--------
a-----------3-3-------3-3-------3-3------------
E--3-3-----------------------------------------

ending thing
e----------------------------------------------
b----------------------------------------------
g------0-----0-----0~~~~-----------------------
d----5-----5-------5~~~~-----------------------
a--3-----3-------5-----------------------------
E--------------3-------------------------------


that's basically it.  send questions and comments to: Nofxstyle311@hotmail.com
			           AIM: Nofxstyle311


Eve 6 albums
2003 It's All in Your Head
2000 Horrorscope
1998 Eve 6
It's All in Your Head tabs
01Without You Here tabbass tab
02Think Twice tabbass tab
03At Least We're Dreaming tabbass tab
04Still Here Waiting tabbass tab
05Good Lives tabbass tab
06Hey Montana tabbass tab
07Bring the Night On tabbass tab
08Friend of Mine tabbass tab
09Girlfriend tabbass tab
11Hokis tabbass tab
12Arch Drive Goodbye tabbass tab

 

1