Search tabs:
Browse artists: 0-9 | A | B | C | D | E | F | G | H | I | J | K | L | M | N | O | P | Q | R | S | T | U | V | W | X | Y | Z
/ Eve 6 / It's All in Your Head (2003) / Without You Here guitar tab

Eve 6 - Without You Here
Submitted By: diehardtabs
EMail: Mitchell_J@hotmail.com
CD: It's All In Your Head
Tabber: Mitchell (Mitchell_J@hotmail.com)
Tuning: Standard
/= slide   *= harmonic   x= mute   ~= hold chord

This whole album kicks ass!

Intro:
e -------------------------------------------------------
B -----7-----6-------4--[palm muted]---------------------
G -----------------4-------------------------------------
D ---8-----6-----4---------------------------------------
A -6-----4-----2----------4---4---4---4---4---4---4---4--
E ----------------------2---2---2---2---2---2---2---2----

e -------------------------------------------------------------------
B -------------------------------------------------------------------
G -------------------------------------------------------------------
D ---6---6---6---6---6---6---6---6----4---4---3---3---4---4---3---3--
A -4---4---4---4---4---4---4---4----2---2---2---2---2---2---2---2----
E -------------------------------------------------------------------

Verses 1:
e ----------------------------------------------------
B ----------------------------------------------------
G ------------------6-6-6-6-6-6-6-6--4-4-4-4-4-4-4-4--
D -4-4-4-4-4-4-4-4--6-6-6-6-6-6-6-6--4-4-4-4-4-4-4-4--
A -4-4-4-4-4-4-4-4--4-4-4-4-4-4-4-4--2-2-2-2-2-2-2-2--
E -2-2-2-2-2-2-2-2------------------------------------

Pre-chorus: play twice
e -------------------------------------------------
B -------------------------------------------------
G -------------------------------------------------
D -4/-----4--4-4-4-----2-2-2--4--4-4-4------2-2-2--
A -4/-----4--4-4-4-----2-2-2--4--4-4-4------2-2-2--
E -2/-----2--2-2-2-*-*-0-0-0--2--2-2-2--*-*-0-0-0--

Chorus: play this part twice
e -------------------------------------------------------------
B -------------------------------------------------------------
G ------------6-6-6-6-6--4-4-4--3-3-3--4-4-4--3-3-3--4-4--3-3--
D -4-4-4-4-4--6-6-6-6-6--x-x-x--x-x-x--x-x-x--x-x-x--x-x--x-x--
A -4-4-4-4-4--4-4-4-4-4--2-2-2--1-1-1--2-2-2--1-1-1--2-2--1-1--
E -2-2-2-2-2---------------------------------------------------

play this part once:
e -------------------------------------------------------------
B -------------------------------------------------------------
G ------------6-6-6-6-6--4-4-4--3-3-3--4-4-4--6-6-6-6-6-6-6-6--
D -4-4-4-4-4--6-6-6-6-6--x-x-x--x-x-x--x-x-x--x-x-x-x-x-x-x-x--
A -4-4-4-4-4--4-4-4-4-4--2-2-2--1-1-1--2-2-2--4-4-4-4-4-4-4-4--
E -2-2-2-2-2---------------------------------------------------

this part twice:
e --------------------------------------------------|-----
B --------------------------------------------------|-----
G ------------6-6-6-6-6--8-8--6-6--4-4-4-4-4-4-4-4--|-----
D -4-4-4-4-4--6-6-6-6-6--8-8--6-6--4-4-4-4-4-4-4-4--|-4~--
A -4-4-4-4-4--4-4-4-4-4--6-6--4-4--2-2-2-2-2-2-2-2--|-4~--
E -2-2-2-2-2----------------------------------------|-2~--

Plays bass for a bit, then pickscrape and:
e -------------------------------------------------------------------
B -------------------------------------------------------------------
G ------------------6-6-6-6-6-6-6-6--4-4-4-4-4-4-4-4-4-4-4-4---------
D -4-4-4-4-4-4-4-4--6-6-6-6-6-6-6-6--4-4-4-4-4-4-4-4-4-4-4-4--2-2-2--
A -4-4-4-4-4-4-4-4--4-4-4-4-4-4-4-4--2-2-2-2-2-2-2-2-2-2-2-2--2-2-2--
E -2-2-2-2-2-2-2-2--------------------------------------------0-0-0--

Do the chorus again, same as before and fade out on an F#5


Chords: E5: 022xxx   B5: x244xx   F#5: 244xxx   C#5: x466xx   D#5: x688xx

Tab originally from http://diehardtabs.tripod.com


Eve 6 albums
2003 It's All in Your Head
2000 Horrorscope
1998 Eve 6
It's All in Your Head tabs
01Without You Here tabbass tab
02Think Twice tabbass tab
03At Least We're Dreaming tabbass tab
04Still Here Waiting tabbass tab
05Good Lives tabbass tab
06Hey Montana tabbass tab
07Bring the Night On tabbass tab
08Friend of Mine tabbass tab
09Girlfriend tabbass tab
11Hokis tabbass tab
12Arch Drive Goodbye tabbass tab

 

1