Search tabs:
Browse artists: 0-9 | A | B | C | D | E | F | G | H | I | J | K | L | M | N | O | P | Q | R | S | T | U | V | W | X | Y | Z
/ Everlast / White Trash Beautiful (2004) / Lonely Road guitar tab

[Main Riff/Verses]
e------------------------------------------------------------------------
b------------------------------------------------------------------------
g------------------------------------------------------------------------
d------------------------------------------------------------------------
a-------------9------9------9------9------9------9------7------5----
E--------10-----10-----9-------9-----7------7------5----5h7------


[Chorus]
           D             A                 Bm              G
e-------2------------0---------------2--------------3-------------------
b-------3------------0---------------3--------------3-------------------
g-------2------------2---------------4--------------0-------------------
d-------0------------2---------------4--------------0-------------------
a-------0------------0---------------2--------------2-------------------
E-------------------------------------2--------------3-------------------


[Intro Riff]
e---------2------0--2-----------------2------0---------------2-----0--2----------
b-------------3----------------------------3------0---------------3-----------------
g--------------------------------------------------------------------------------------
d--------------------------------------------------------------------------------------
a--------------------------------------------------------------------------------------
E--------------------------------------------------------------------------------------


[Solo]
e-----10--7--5--7*-----5--7*-----5--7---------------------------------------------------------
b------------------------------------------7--5----------------0-----5*----------------------------
g-------------------------------------------------7*---------------7-----------------7---7**------
d----------------------------------------------------------7---------------------7----7------------
a----------------------------------------------------------------------------------------------------
E----------------------------------------------------------------------------------------------------
               * = vibrate


have fun ;)


Everlast albums
2004 White Trash Beautiful
2000 Eat at Whitey's
1998 Whitey Ford Sings the Blues
White Trash Beautiful tabs
01Blinded by the Sun tabbass tab
02Broken tabbass tab
03White Trash Beautiful tabbass tab
06Angel tabbass tab
10Lonely Road tabbass tab
13Pain tabbass tab

 

1