Search tabs:
Browse artists: 0-9 | A | B | C | D | E | F | G | H | I | J | K | L | M | N | O | P | Q | R | S | T | U | V | W | X | Y | Z
/ Everlast / White Trash Beautiful (2004) / Pain guitar tab

[Intro/Verse]
       Em         G         Bm        A
e-------0---------3---------2---------0---0-p-0-h-0-----
b-------0---------3---------2---------0---0-p-0-h-0-----
g-------0---------0---------4---------2---0-p-2-h-0-----
d-------2---------0---------4---------2---0-p-2-h-0-----
a-------2---------2---------2---------0---0-p-0-h-0-----
E-----------------3---------x---------------------------
     p = pull off              h = hammer on


[Chorus]
       E      F# G     F#  E     F#  G      F# E
e---------------------------------------------------------
b---------------------------------------------------------
g---------------------------------------------------------
d------2------4--5------4--2------4--5------4--2----------
a------2------4--5------4--2------4--5------4--2----------
E------0------2--3------2--0------2--3------2--0----------
with distortion


[Interlude]
                    Em
e-------------------0--------------------------------------------
b-------------------0--------------------------------------------     it's easy...listen to the record...but
g-------------------0---------pick single strings from----             actually you can play what you want
d-------------------2----------the Em chord----------------            it will sound all good ;)
a-------------------2--------------------------------------------
E------3--0---------0--------------------------------------------


[Bridge]
       E       G      A
e------------------------------------------------------------------
b------------------------------------------------------------------         yeah I'm really not sure about the
g----------------------------3s2--3--2--0--------------------             last part….but it sounds pretty
d-------2------5------7------3s2--3--2--0--------------------                 similar I think
a-------2------5------7------0-0--0--0--0--------------------
E-------0------3------5-------------------------------------------
         s = slide ....play with distortion

**************************************************************************************************
[Intro]
[Verse]
[Chorus]
[Interlude]
[Verse]
[Chorus]
[Interlude]
[Bridge]
[Interlude]
[Verse]
[Chorus]

****************************************************************************************************

everlast's the best...great song...have fun ;)


Everlast albums
2004 White Trash Beautiful
2000 Eat at Whitey's
1998 Whitey Ford Sings the Blues
White Trash Beautiful tabs
01Blinded by the Sun tabbass tab
02Broken tabbass tab
03White Trash Beautiful tabbass tab
06Angel tabbass tab
10Lonely Road tabbass tab
13Pain tabbass tab

 

1