Search tabs:
Browse artists: 0-9 | A | B | C | D | E | F | G | H | I | J | K | L | M | N | O | P | Q | R | S | T | U | V | W | X | Y | Z
/ Everlast / Whitey Ford Sings the Blues (1998) / What It's Like guitar tab

Artist: Everlast
Album: Whitey Ford Sings the Blues

Tabbed By Drakez ( vlad@emu-efnet.com )
Special Thanks to Tom Woodrum

Song: What it's Like


    Dsus4        Dm                  Fmaj7        C

e|--------3------1-3p1------------|------0--(0)-0-----0-(0)-0------| 
B|o-----3--------------3p(0)------|------1------1-----1-----1-----o|
G|----2---------------------------|----2--------------0------------|
D|o-0-----------------------------|--3------------2-2-------------o|
A|--------------------------------|---------------3----------------|
E|--------------------------------|--------------------------------|

   Dsus4         Dm                  Fmaj7     C

e|-------3-------1-3p1------------|------0---0---------------------|
B|-----3--------------3p(0)-------|------1---1----1----------------|
G|---2----------------------------|----2---2------0----------------|
D|-0------------------------------|--3------------2----------------|
A|--------------------------------|------------3----3h0p3----------|
E|--------------------------------|--------------------------------|

            Fmaj7                   C              Dm
      >             >                     >        >           >
e|----1-1-X-0-------0-0-X---------|-------0-0-X-0--1---1h3p1---1---|
B|----3-3-X-1-------1-1-X---------|-------1-1-X-0--3---3-----3-3---|
G|----2-2-X-2-------2-2-X-0-------|-------0-0-X------2-------------|
D|-0--0-0-X-3-------3-3-X---------|-0p2---2-2-X------0-------------|
A|--------------------------------|-3-----3-3-X--------------------|
E|--------------------------------|--------------------------------|

               Fmaj7        C                    Dm
                                                             >
e|-(1)---1-1-X-0------0-0-X-0-----|-----0-0-X-0--1---1h3p1---1-----|Repeatx3
B|o(3)---3-3-X-1------1-1-X-1-----|-1---1-1-X-0--3---3-----3-3----o|
G|-------2-2-X-2------2-2-X-0-----|-0---0-0-X-0----2---------------|
D|o----0-0-0-X-3------3-3-X-------|-2---2-2-X---------------------o|
A|--------------------------------|-3---3-3-X----------------------|
E|--------------------------------|--------------------------------|

         Fmaj7            C                           Dm
   >                >                                 > >       >
e|-1-1-X-0----------0-0-0-0-------|-X-0-0---0-0-X-0---1-1h3p1---1--|
B|-3-3-X-1----------1-1-1-1-------|-X-1-1---1-1-X-0---3-3-----3-3--|
G|-2-2-X-2----------2-2-2-0-------|-X-0-0---0-0-X------------------|
D|-0-0-X-3----------3-3-3---------|-X-3-3---3-3-X------------------|
A|--------------------------------|-X-2-2---2-2-X------------------|
E|--------------------------------|--------------------------------|

                Fmaj7               C             Dm
    >         >          >              >     >   >           >
e|-(1)--1-1-1-0-X-0-0--0-0-0-0----|-----0-0-X-0---1---1h3p1---1----|
B|-(3)--3-3-3-1-X-1-1--1-1-1-1----|-1---1-1-X-0---3---3-------3----|
G|--2---2-2-2-2-X---2--2-2-2-3----|-0---0-0-X-0-----2-------2-2----|
D|--0---0-0-0---X---3--3-3-3------|-2---2-2-X-------0-------0------|
A|--------------------------------|-3---3-3-X----------------------|
E|--------------------------------|--------------------------------|

   Dm           Fmaj7               C                Dm
        >              >     >        >     >     >  >   >       >
e|------1-1-1-X--------0-0-X-0----|-X-0-0---0-0-X-0--3---1h3p1---1-|
B|------3-3-3-X-1------1-1-X-1----|-X-1-1---1-1-X-0--1---------3-3-|
G|-2----2-2-2-X-2------2-2-X-0----|-X-0-0---0-0-X-0----------------|
D|-0----0-0-0-X-3------3-3-X------|-X---2---2-2-X------0-----------|
A|--------------------------------|-X---3---3-3-X------------------|
E|--------------------------------|--------------------------------|

                Fmaj7               C             Dm
        >     >        >                      >   >            >
e|------1-1-X-0-0------0-0-X-0----|-----0-0-X-0---1---1h3p1----1---|
B|------3-3-X-1-1------1-1-X-1----|-----1-1-X-0---3---3--------3---|
G|-2----2-2-X---2------2-2-X-0----|-0---0-0-X-------2-2--------2---|
D|-0----0-0-X---3------3-3-X------|-2---2-2-X-------0-0------------|
A|--------------------------------|-3---3-3-X----------------------|
E|--------------------------------|--------------------------------|

            Fmaj7                   C               Dm
        >   >       >                   >     >     >         >
e|------1---0-------0-X-----------|-----0-0-X-0-----1---1h3p1-1----|
B|------3---1-------1-X-1---------|-----1-1-X-0-----3---3-----3----|
G|-2----2-----------2-X-0---------|-0---0-0-X---------2------------|
D|-0----0-------3---3-X-----------|-2---2-2-X----------------------|
A|--------------------------------|-3---3-3-X----------------------|
E|--------------------------------|--------------------------------|

                Fmaj7               C
                         >              >
e|-(1)--1-1-1-1-X-0-0----0-X------|-----0-----0--------------------|
B|-(3)--3-3-3-3-X-1-1----1-X-1----|-1---1-----1---1----------------|
G|------2-2-2-2-X-2-2----2-X-0----|-0---0-0-0-0---0----------------|
D|------0-0-0-0-X---3----3-X------|-2---2-2-2---2-2----------------|
A|--------------------------------|-3---3-3-3---3---3-3h0p3--------|
E|--------------------------------|--------------------------------|

   Dm            Em/D               Dm           Em/D Esus4/D Em/D

e|-----1-----------3---X----------|-----1------1/3-5-3-------------|Figure1 
B|-----3-3-----3/5-5-5-X----------|-------3-3--3/5-------X---------| 
G|---2-------2-2/4---4------------|-2-------2--2/4-------X---------|
D|-0-------0----------------------|-0-0----------------0-0---------|
A|---------0----------------------|--------------------------------|
E|--------------------------------|--------------------------------|

   Dm            Em/D               Dm

e|-----1-----------3--------------|-----1-----1-----1--------------|Figure1
B|-----3-3---3-3/5-5-5---X--------|-------3---3-3-----3------------|Continued
G|-2-2---2---2-2/4---4-4-X--------|-2-2-----2-----2---2-2----------|
D|-0-------0----------------------|-0-0-----0-----0----------------|
A|--------------------------------|--------------------------------|
E|--------------------------------|--------------------------------|

    Dm           Fmaj7              C          Dm
    >          >     >                 >     > >           >

e|--1----1-1-1-0-X-0-0-0-0-0-0----|----0-0-X-0-1---1h3p1---1-------|Repeatx4
B|o-3----3-3-3-1-X-1-1-1-1-1-1----|-1--1-1-X-0-3---3-------3------o| 
G|--2----2-2-2-2-X---2-2-2-2-3----|-0--0-0-X-0---2-------2-2-------|
D|o-0----0-0-0---X---3-3-3-3------|-2--2-2-X-----0-------0--------o|
A|--------------------------------|-3--3-3-X-----------------------|
E|--------------------------------|--------------------------------|
    Dm           Fmaj7              C          Dm
    >          >     >                 >     > >           >
e|--1----1-1-1-0-X-0-0-0-0-0-0----|----0-0-X-0-1---1h3p1---1-------|Repeatx4
B|o-3----3-3-3-1-X-1-1-1-1-1-1----|-1--1-1-X-0-3---3-------3------o| 
G|--2----2-2-2-2-X---2-2-2-2-3----|-0--0-0-X-0---2-------2-2-------|
D|o-0----0-0-0---X---3-3-3-3------|-2--2-2-X-----0-------0--------o|
A|--------------------------------|-3--3-3-X-----------------------|
E|--------------------------------|--------------------------------|

    Dm           Fmaj7              C          Dm
    >          >     >                 >     > >           >
e|--1----1-1-1-0-X-0-0-0-0-0-0----|----0-0-X-0-1---1h3p1---1-------|
B|o-3----3-3-3-1-X-1-1-1-1-1-1----|-1--1-1-X-0-3---3-------3------o|
G|--2----2-2-2-2-X---2-2-2-2-3----|-0--0-0-X-0---2-------2-2-------|
D|o-0----0-0-0---X---3-3-3-3------|-2--2-2-X-----0-------0--------o|
A|--------------------------------|-3--3-3-X-----------------------|
E|--------------------------------|--------------------------------|

   C
         >     >   >
e|-------0-----0------------------|
B|-1-----1-----1---1--------------|
G|-0-----0-0-0-0---0--------------|
D|-2-----2-2-2---2-2--------------|
A|-3-----3-3-3---3---3-3p0h3------|
E|--------------------------------|

    Dsus4     Dm                    Fmaj7      
                                                             
e|--------3---1h3p1---------------|-----0-0-0-----0-0-0------------|Repeatx4
B|o-----3-----------3h(0)---------|-----1---1-----1---0-----------o| 
G|----2---------------------------|---2-------2-2-0----------------|
D|o-0-----------------------------|-3---------3-------------------o|
A|--------------------------------|--------------------------------|
E|--------------------------------|--------------------------------|



(Play Figure 1)


    Dm           Fmaj7              C          Dm
    >          >     >                 >     > >           >
e|--1----1-1-1-0-X-0-0-0-0-0-0----|----0-0-X-0-1---1h3p1---1-------|Figure2 
B|o-3----3-3-3-1-X-1-1-1-1-1-1----|-1--1-1-X-0-3---3-------3-------|Repeatx4
G|--2----2-2-2-2-X---2-2-2-2-3----|-0--0-0-X-0---2-------2-2-------|        
D|o-0----0-0-0---X---3-3-3-3------|-2--2-2-X-----0-------0---------|      
A|--------------------------------|-3--3-3-X-----------------------|
E|--------------------------------|--------------------------------|


    Dm           Fmaj7              C          Dm
    >          >     >                 >     > >           >
e|--1----1-1-1-0-X-0-0-0-0-0-0----|----0-0-X-0-1---1h3p1---1-------|Figure2 
B|--3----3-3-3-1-X-1-1-1-1-1-1----|-1--1-1-X-0-3---3-------3------o|Continued
G|--2----2-2-2-2-X---2-2-2-2-3----|-0--0-0-X-0---2-------2-2-------|        
D|--0----0-0-0---X---3-3-3-3------|-2--2-2-X-----0-------0--------o|     
A|--------------------------------|-3--3-3-X-----------------------|
E|--------------------------------|--------------------------------|


    Dm           Fmaj7              C          Dm
    >          >     >                 >     > >           >
e|--1----1-1-1-0-X-0-0-0-0-0-0----|----0-0-X-0-1---1h3p1---1-------|
B|o-3----3-3-3-1-X-1-1-1-1-1-1----|-1--1-1-X-0-3---3-------3------o|
G|--2----2-2-2-2-X---2-2-2-2-3----|-0--0-0-X-0---2-------2-2-------|   
D|o-0----0-0-0---X---3-3-3-3------|-2--2-2-X-----0-------0--------o|   
A|--------------------------------|-3--3-3-X-----------------------|
E|--------------------------------|--------------------------------|

   C
         >     >   >
e|-------0-----0------------------|
B|-1-----1-----1---1--------------|
G|-0-----0-0-0-0---0--------------|
D|-2-----2-2-2---2-2--------------|
A|-3-----3-3-3---3---3-3h0p3------|
E|--------------------------------|


Outro (Fadeout on second time of playing it(Repeat x2))

   Dm                               Fmaj7           C

e|---1-----1----1-----------------|-----0-----0-----0--------------|
B|-----3-----3----3---------------|-------1-----1-----1------------| 
G|-------2-----2----2-------------|---2-----2-----2-----0----------|
D|-0------------------------------|-3------------------------------|
A|--------------------------------|--------------------------------|
E|--------------------------------|--------------------------------|

                                    Dm

e|-----0-----0---0----------------|-----1-----1-----3-1------------|
B|-------1-----1---1--------------|-------3-----3-------3----------| 
G|---0-----0---------0-0----------|---2-----2-----2----------------|
D|--------------------------------|-0------------------------------|
A|-3------------------------------|--------------------------------|
E|--------------------------------|--------------------------------|



Authors Notes:

o
  = Repeats
o

> = Strum up
X = Mute
/ = Slide Up
\ = Slide Down
p = pull of
h = Hammer on(not for Hot to death)
~ = bend up down (fast till fade out)

 Dsus4       Dm        Fmaj7        Em/D        Esus4/D
xxo        xxo        xx   o      xxo          xxo
======     ======     ======      ======       ======
||||||     |||||O     ||||O|      ||||||       ||||||
|||O||     |||O||     |||O||      ||||||       ||||||
||||OO     ||||O|     ||O|||      |||||O       ||||||
||||||     ||||||     ||||||      |||O||       |||O||

  G         
  ooo  
======     
||||||     
|O||||    
O||||O 

  E        G       C        A
o   oo
======   ======  ======   ======
|||O||   ||||||  ||||||   ||||||
|OO|||   ||||||  ||||||   ||||||
||||||   OOOOOO  OOOOOO   ||||||
         |||O||  ||||||   ||||||
         |OO|||  ||OOO|   OOOOOO
                          |||O||
                          |OO|||


  G7       D7       F

======   ======   ======
||||||   ||||||   OOOOOO
||||||   ||||||   |||O||
OOOOOO   ||||||   |OO|||
|||O||   ||||||
|O||||   OOOOOO
         ||||||
         ||O|O|


Everlast albums
2004 White Trash Beautiful
2000 Eat at Whitey's
1998 Whitey Ford Sings the Blues
Whitey Ford Sings the Blues tabs
03Ends tabbass tab
04What It's Like tabbass tab
05Get Down tabbass tab
08Hot To Death tabbass tab
12Today (Watch Me Shine) tabbass tab
16The Letter tabbass tab
177 Years tabbass tab

 

1