Search tabs:
Browse artists: 0-9 | A | B | C | D | E | F | G | H | I | J | K | L | M | N | O | P | Q | R | S | T | U | V | W | X | Y | Z
/ Fear Factory / Demanufacture (1995) / Body Hammer guitar tab


  FEAR FACTORY - BODY HAMMER TAKEN FROM DEMANUFACTURE RECORD - ROADRUNNER RECORDS
  AUTHOR:ALEXANDRE STRESSER - fearfactory_hk@yahoo.com - www.fearfactory.parana.net
  
  This song is one of my favourites,it has that machine feeling,
  the guitar is awesome as the bass!The tab isnt 100% accurate but you can have fun
  with this...
    

  Sorry for my english!I'm brazilian!
  This first riff is played along the whole song...

 RIFF ONE 

 |----------------------------------|
 |----------------------------------|
 |----------------------------------|
 |----------------------------------|
 |-3------6--------------3-----6----|
 |-1-0-0--4--0--0--0--0--1--0--4----|
  
 (this is the same riff,its down here only for prin propose)
 
 |-------------------------------|
 |-------------------------------|
 |-------------------------------|
 |-2/5-3-------------------------|
 |-2/3-1-3-------6-------3-------|
 |-------1-0--0--4-0--0--1-------|

                                                 
 |-------------------|
 |-------------------|
 |-------------------|
 |-------------------|
 |-------------------|
 |-0-0-0-0-0-0-0000--|

RIFF 2 (A dying sun in a poisonous sky...)

 |----------------------------------|
 |----------------------------------|
 |----------------------------------|
 |----------------------------------|
 |-2------7--------------2-----7----|
 |-4-0-0--5--0--0--0--0--4--0--5----|

 |-------------------------------|
 |-------------------------------|
 |-------------------------------|
 |-3/6-2-------------------------|
 |-3/4-4-2-------7-------2-------|
 |-------4-0--0--5-0--0--4-------|

RIFF 3

 |------------------------------|
 |------------------------------|
 |------------------------------|
 |------------------------------|
 |------------------------------|
 |0-0-0-0-0-0-0-0-0-0-0-0-0-0-0-|

In this part Burton starts: Pound, drive, swing, strike...

riff 4

 |------------------------------|
 |------------------------------|
 |------------------------------|
 |4/8-2--2----------------------|  
 |4/8-2--2----------------------|
 |2/6-0--0----0-0-0-0-0-0-0000--|

RIFF 5

 |------------------------------|
 |------------------------------|
 |------------------------------|
 |2---2-2------5-5--2----5-5--2-|
 |2---2-2------5-5--2----5-5--2-|
 |0---0-0------3-3--0----3-3--0-|
 


 Here is the chorus : 

 |-------------------|
 |-------------------|
 |-------------------|
 |-------------------|
 |-2--8--7--8-7-5----|
 |-0--6--5--6-5-3----|
                                 
                   
 RIFF 7: I AM A TOOOOOOOOOOOOL (You can do a harmonic here on the first time)  
                  
 |----------------------------|
 |----------------------------|
 |----------------------------|
 |----------------------------|
 |-2--2-6--6-2--6-5--6-5--3---|
 |-0--0-4--4-0--4-3--4-3--1---|


RIFF 1 - ABOUT 14X
RIFF 2 - 1X
RIFF 1 - 1X
CHORUS - 1X
RIFF 1 - 3 OR 4X
RIFF 2 - 1X
CHORUS - 2X
RIFF 3 - 4x
RIFF 4 - 16X
RIFF 1 - 2X
CHORUS - 2X
RIFF 5 - 1X
CHORUS - 2X
RIFF 7 - 4X
END OF THE SONG,THIS END YOU CAN PLAY WITHOUT THE TAB,ITS FUCKING EASY,IF YOU CANT,JUST EMAIL ME!

LYRICS:
                                 I clench my teeth and realize
                                 My world is so near it's demise
                                 A dying sun in a poisonous sky
                                            Stining my eyes
                                   Burning with contempt and conflict 

                                                As of now
                                                I am a tool
                                           Of severe impact 

                                   I clench my fist and visualize
                                 The blood that is spilled is our own
                                   I open wide my bloodshot eyes
                                            Count the dead
                                       A result of dysfunction 

                                                  Chorus:
                                                As of now
                                                I am a tool
                                           Of severe impact
                                             Hammer down
                                           Cause and effect
                                     And create a new world 

                                    Pound, drive, swing, strike
                                    Break down, smash down
                              Pound and drive, swing and strike
                                             Break it down
                                               I am a tool 

                                         Repeat chorus (x2) 

                                              I am a tool...
                                    I am a tool to break down
                            Break it down and smash it all away 


Fear Factory albums
2004 Archetype
2002 Concrete
2001 Digimortal
1998 Obsolete
1995 Demanufacture
1992 Soul of a New Machine
Demanufacture tabs
01Demanufacture tabbass tab
02Self Bias Resistor tabbass tab
03Zero Signal tabbass tab
04Replica tabbass tab
05New Breed tabbass tab
06Dog Day Sunrise tabbass tab
07Body Hammer tabbass tab
08Flashpoint tabbass tab
09H-K (Hunter-Killer) tabbass tab
10Pisschrist tabbass tab
11Therapy For Pain tabbass tab

 

1