Search tabs:
Browse artists: 0-9 | A | B | C | D | E | F | G | H | I | J | K | L | M | N | O | P | Q | R | S | T | U | V | W | X | Y | Z
/ From First to Last / Dear Diary, My Teen Angst Has a Bodycount (2004) / Kiss Me, I'm Contagious guitar tab

Artist: From First to Last
Song: Kiss Me, I'm Contagious
Album: Dear Diary, My Teen Angst Has a Body Count
Tuning: low to high (D A D G B E)
By: Chris Foster (Idratherwatchyouchoke@yahoo.com)


This song has a definite sound of it's own on FFTL's
debut full-length (Epitaph). It's a lot more "hardcore" then some of
the other songs on the cd, and it's about desperado's and cowboys...
I mean, what else could you ask for?

And Sonny's voice is amazing. Enough said.



h - hammer on
p - pull off
b - bend string up
r - release bend
/ - slide up
\ - slide down
. - palm mute
<>- pinch harmonic
* - harmonic
x - muted slash
~ - vibratto (hold note)

[forewarning]
I try my best to make sure everything is laid out neatly
everything is generally in time, but because of this
stumming may need to be defined by the reader.


[guitar one]


[verse] 0:00 - 0:09
|------------|------------|------------|------------|
|------------|------------|------------|------------|
|------------|------------|------------|------------|
|-3-3---xxx--|-xxx--xxx---|-7-7-7-7----|-2-2-2-2----|
|-3-3---xxx--|-xxx--xxx---|-7-7-7-7----|-2-2-2-2----|
|-3-3---xxx--|-xxx--xxx---|-7-7-7-7----|-2-2-2-2----|[x2]
"I break hearts like the west was won"

[verse] (cont.) 0:09 - 0:18
|------------|------------|------------|------------|
|------------|------------|------------|------------|
|------------|------------|------------|------------|
|-3-3--------|------------|-7-7-7-7----|-2-2-2-2----|
|-3-3--0-0-0-|------------|-7-7-7-7----|-2-2-2-2----|
|-3-3--------|-5-22222-3--|-7-7-7-7----|-2-2-2-2----|[x2]
"play poker all day at the saloon"



[chorus] 0:18 - 0:36
|------------|------------|------------|------------|
|------------|------------|------------|------------|
|-10-10-10-10|-10-10-10-10|------------|------------|
|-X--X--X--X-|-X--X--X--X-|-3--2--7----|-3--2--0----|
|-8--8--8--8-|-8--8--8--8-|-3--2--7----|-3--2--0----|
|------------|------------|-3--2--7----|-3--2--0----|[x4]
"we won't back down"       "bang, bang, guns go bang"


[guitar 2 only]


[post chorus] 0:40 - 0:46
|------------|------------|
|------------|------------|
|------------|------------|
|-3--2--7----|-3--2--0----|
|-3--2--7----|-3--2--0----|
|-3--2--7----|-3--2--0----|[x3]
"we draw to death"


[breakdown] 0:46 - 0:56
|------------|------------|
|------------|------------|
|------------|--12~-------|
|-0-0---0-0--|--*---------|
|-0-0---0-0--|------------|
|-0-0---0-0--|------------|
  . .   . .


[build-up...i guess] 0:56 - 1:15
|------------|------------|------------|------------|
|------------|------------|------------|------------|
|------------|------------|------------|-8-8---3-3--|
|-8-8-8-8----|-8-8-8-8----|-2-2---3-3--|-X-X---X-X--|
|-8-8-8-8----|-8-8-8-8----|-2-2---3-3--|-6-6---1-1--|
|-8-8-8-8----|-8-8-8-8----|-2-2---3-3--|------------|[x4]
"there was a man from way back west"


[solo] 1:15 - 1:33
|------------|------------|------------|------------|
|------------|------------|------------|------------|
|------------|------------|------------|------------|
|-3-3-3-3----|-3-3-3-3----|-7-7-7-7----|-2-2-2-2----|
|-3-3-3-3----|-3-3-3-3----|-7-7-7-7----|-2-2-2-2----|
|-3-3-3-3----|-3-3-3-3----|-7-7-7-7----|-2-2-2-2----|[x4]



[verse] 1:33 - 1:43
|------------|------------|------------|------------|
|------------|------------|------------|------------|
|------------|------------|------------|------------|
|-3-3---xxx--|-xxx--xxx---|-7-7-7-7----|-2-2-2-2----|
|-3-3---xxx--|-xxx--xxx---|-7-7-7-7----|-2-2-2-2----|
|-3-3---xxx--|-xxx--xxx---|-7-7-7-7----|-2-2-2-2----|[x2]
"i bite it, but i don't light it"

[verse] (cont.) 1:43 - 1:52
|------------|------------|------------|------------|
|------------|------------|------------|------------|
|------------|------------|------------|------------|
|-3-3--------|------------|-7-7-7-7----|-2-2-2-2----|
|-3-3--0-0-0-|------------|-7-7-7-7----|-2-2-2-2----|
|-3-3--------|--5-2-2-2-3-|-7-7-7-7----|-2-2-2-2----|[x2]
"two barrels and a whole lot of bang"



[chorus] 1:52 - 2:10
|------------|------------|------------|------------|
|------------|------------|------------|------------|
|-10-10-10-10|-10-10-10-10|------------|------------|
|-X--X--X--X-|-X--X--X--X-|-3--2--7----|-3--2--0----|
|-8--8--8--8-|-8--8--8--8-|-3--2--7----|-3--2--0----|
|------------|------------|-3--2--7----|-3--2--0----|[x4]
"we won't back down"       "bang, bang, guns go bang"


[guitar two only]


[post-chorus]2:12 - 2:19
|------------|------------|
|------------|------------|
|------------|------------|
|-3--2--7----|-3--2--0----|
|-3--2--7----|-3--2--0----|
|-3--2--7----|-3--2--0----|[x3]
"we draw to death"


2:19 - 2:37
|------------|------------|------------|------------|
|------------|------------|------------|------------|
|------------|------------|------------|------------|
|-0-0-0-0-0-0|--x0-0-0----|-3--2--7----|-3--2--0----|
|-0-0-0-0-0-0|--x0-0-0----|-3--2--7----|-3--2--0----|
|-0-0-0-0-0-0|--x0-0-0----|-3--2--7----|-3--2--0----|[x4]
  . . . . . .    . . .     "can I touch your legs?"

[outro]2:37 - 3:13
|------------|------------|------------|------------|
|------------|------------|------------|------------|
|------------|------------|------------|------------|
|------------|------------|------------|-x-x-x-x-x-x|
|------------|------------|------------|-x-x-x-x-x-x|
|------------|------------|------------|-x-x-x-x-x-x|[x8]
                           "Can I touch your legs?"


---------------------------------------------------------
[Guitar Two]


[verse] 0:00 - 0:09
|------------|------------|------------|------------|
|------------|------------|------------|------------|
|------------|------------|------------|------------|
|-3-3---xxx--|-xxx--xxx---|-7-7-7-7----|-2-2-2-2----|
|-3-3---xxx--|-xxx--xxx---|-7-7-7-7----|-2-2-2-2----|
|-3-3---xxx--|-xxx--xxx---|-7-7-7-7----|-2-2-2-2----|[x2]
"I break hearts like the west was won"

[verse] (cont.) 0:09 - 0:18
|------------|------------|------------|------------|
|------------|------------|------------|------------|
|------------|------------|------------|------------|
|-3-3--7-7-7-|-5----------|-7-7-7-7----|-2-2-2-2----|
|-3-3--------|---77777-8--|-7-7-7-7----|-2-2-2-2----|
|-3-3--------|------------|-7-7-7-7----|-2-2-2-2----|[x2]
"play poker all day at the saloon"


[chorus] 0:18 - 0:36
|------------|------------|------------|------------|
|------------|------------|------------|------------|
|-10-10-10-10|-10-10-10-10|------------|------------|
|-X--X--X--X-|-X--X--X--X-|-3--2--7----|-3--2--0----|
|-8--8--8--8-|-8--8--8--8-|-3--2--7----|-3--2--0----|
|------------|------------|-3--2--7----|-3--2--0----|[x4]
"we won't back down"       "bang, bang, guns go bang"


|------------|------------|
|------10----|------------|
|-10-9-*-----|-10-9-7-----|
|-*--*-------|-*--*-*-----|
|------------|------------|
|------------|------------|
(I totally guessed on this part, please feel free
to correct it for me. It sounds more like a bunch of
feedback than harmonics to me)


[post chorus] 0:40 - 0:46
|------------|------------|
|------------|------------|
|------------|------------|
|-3--2--7----|-3--2--0----|
|-3--2--7----|-3--2--0----|
|-3--2--7----|-3--2--0----|[x3]
"we draw to death"


[breakdown] 0:46 - 0:56
|------------|------------|
|------------|------------|
|------------|--12~-------|
|-0-0---0-0--|--*---------|
|-0-0---0-0--|------------|
|-0-0---0-0--|------------|
  . .   . .

[build-up...i guess] 0:56 - 1:15
|------------|------------|------------|------------|
|------------|------------|------------|------------|
|------------|------------|------------|-8-8---3-3--|
|-8-8-8-8----|-8-8-8-8----|-2-2---3-3--|-X-X---X-X--|
|-8-8-8-8----|-8-8-8-8----|-2-2---3-3--|-6-6---1-1--|
|-8-8-8-8----|-8-8-8-8----|-2-2---3-3--|------------|[x4]
"there was a man from way back west"


[solo] 1:15 - 1:33
|------------|------------|-12-13-12-13|-12-13-12---|
|-12---------|------------|------------|------------|
|----13-13-13|-13-13-13---|------------|------------|
|------------|------------|------------|------------|
|------------|------------|------------|------------|
|------------|------------|------------|------------|[x4]


[verse] 1:33 - 1:43
|------------|------------|------------|------------|
|------------|------------|------------|------------|
|------------|------------|------------|------------|
|-3-3---xxx--|-xxx--xxx---|-7-7-7-7----|-2-2-2-2----|
|-3-3---xxx--|-xxx--xxx---|-7-7-7-7----|-2-2-2-2----|
|-3-3---xxx--|-xxx--xxx---|-7-7-7-7----|-2-2-2-2----|[x2]
"I break hearts like the west was won"

[verse] (cont.) 1:43 - 1:52
|------------|------------|------------|------------|
|------------|------------|------------|------------|
|------------|------------|------------|------------|
|-3-3--7-7-7-|-5----------|-7-7-7-7----|-2-2-2-2----|
|-3-3--------|---77777-8--|-7-7-7-7----|-2-2-2-2----|
|-3-3--------|------------|-7-7-7-7----|-2-2-2-2----|[x2]
"play poker all day at the saloon"


[chorus] 1:52 - 2:10
|------------|------------|------------|------------|
|------------|------------|------------|------------|
|-10-10-10-10|-10-10-10-10|------------|------------|
|-X--X--X--X-|-X--X--X--X-|-3--2--7----|-3--2--0----|
|-8--8--8--8-|-8--8--8--8-|-3--2--7----|-3--2--0----|
|------------|------------|-3--2--7----|-3--2--0----|[x4]
"we won't back down"       "bang, bang, guns go bang"


|------------|------------|
|------10----|------------|
|-10-9-*-----|-10-9-7-----|
|-*--*-------|-*--*-*-----|
|------------|------------|
|------------|------------|
(same as above on this part)


[post chorus]2:12 - 2:19
|------------|------------|
|------------|------------|
|------------|------------|
|-3--2--7----|-3--2--0----|
|-3--2--7----|-3--2--0----|
|-3--2--7----|-3--2--0----|[x3]
"we draw to death"


2:19 - 2:37
|------------|------------|------------|------------|
|------------|------------|------------|------------|
|------------|-------7----|------------|------------|
|-0-0-0-0-0-0|--x0-0-X----|-3--2--7----|-3--2--0----|
|-0-0-0-0-0-0|--x0-0-5----|-3--2--7----|-3--2--0----|
|-0-0-0-0-0-0|--x0-0------|-3--2--7----|-3--2--0----|[x4]
  . . . . . .    . .       "can I touch your legs?"


[outro] 2:39 - 2:55
|------------|------------|------------|------------|
|------------|------------|------------|------------|
|-10-10-9----|------------|-7-7--------|------------|
|------------|-10--10-10--|------------|------------|
|------------|------------|------------|------------|
|------------|------------|------------|------------|[x4]



Any corrections welcomed


From First to Last albums
2004 Dear Diary, My Teen Angst Has a Bodycount
Dear Diary, My Teen Angst Has a Bodycount tabs
02The One Armed Boxer vs. the Flying Guillotine tabbass tab
03Note to Self tabbass tab
04I Liked You Better Before You Were Naked On the Internet tabbass tab
05Featuring Some of Your Favorite Words tabbass tab
06Emily tabbass tab
07Secrets Don't Make Friends tabbass tab
08Populace in Two tabbass tab
09Kiss Me, I'm Contagious tabbass tab
10Minuet tabbass tab
11Ride the Wings of Pestilence tabbass tab
12(untitled) tabbass tab

 

1