Search tabs:
Browse artists: 0-9 | A | B | C | D | E | F | G | H | I | J | K | L | M | N | O | P | Q | R | S | T | U | V | W | X | Y | Z
/ Fuel / Natural Selection (2003) / Falls on Me guitar tab

Band-Fuel
Song-Falls On Me
Tabber-Johnny Villarreal
~-let ring
*-pinch harmonic
VVV-vibrato
Standard Tuning
listen to the song & figure out the strumming yourself!
INTRO(X3) CLEAN
|----------------0~--------------------------------------0~----------------------
|--------------------------------------------------------------------------------
|---------0-----------0--------0---------------0-------------------0-------------
|-----10-----10-----------10-------------10---------10---------10------10--------
|--8--------------------------------0--------------------------------------------
|--------------------------------------------------------------------------------


End Of Intro
|--0~------0---0------------------------------
|--10~-----7/8/7------------------------------
|--0~------0---0------------------------------
|----------7---7------------------------------
|----------5---5------------------------------
|---------------------------------------------


VERSE(same as intro but with light distortion)

Chorus
Guitar 1
|---------------------------------------------------
|---------------------------------------------------
|--5------------------------------------------------
|--5----5----7--------9---10---3--------------------
|--3----5----7--------9---10---3--------------------
|-------3----5--------7---8----1--------------------

Guitar 2
|--0---0----0----------------1------------------
|--1---3----1----------------1------------------
|--0---0----2----------------2------------------
|--2---0----2----------------3------------------
|--3---2----0----------------3------------------
|--0---3----0----------------1------------------

Bridge

|---3---0-----3---0--------1------0--------------
|---3---1-----3---1--------1------0--------------
|---0---2-----0---2--------2------1--------------
|---0---2-----0---2--------3------2--------------
|---2---0-----2---0--------3------2--------------
|---3---0-----3---0--------1------0--------------

ending solo(X3)(9VVV last time only)
|----------------------------------------------
|----------------------------------------------
|----------------------------------------------
|--14-14-14-14-14*---12-12-12*---10----9VVV---
|----------------------------------------------
|----------------------------------------------

END WITH THE INTRO


Well thats that. I didnt listen to the song while doing this, i just did it by memory so there are a few parts missing, which i'll add later. E-mail me at punk_level_272000@yahoo.com with any comments. Please rate it! ROCK ON!!


Fuel albums
2003 Natural Selection
2000 Something Like Human
1998 Sunburn
Natural Selection tabs
01Quarter tabbass tab
02Down Inside of You tabbass tab
03Million Miles tabbass tab
04Falls on Me tabbass tab
05These Things tabbass tab
06Won't Back Down tabbass tab
07Running Away tabbass tab
08Most of All tabbass tab
09Getting Thru? tabbass tab
10Die Like This tabbass tab
11Luck tabbass tab
12Days With You tabbass tab

 

1