Search tabs:
Browse artists: 0-9 | A | B | C | D | E | F | G | H | I | J | K | L | M | N | O | P | Q | R | S | T | U | V | W | X | Y | Z
/ Fuel / Something Like Human (2000) / Innocent guitar tab

Fuel - Innocent
Standard Tuning

Verses: (clean at intro, distorted when the drums come in)
|---0----0-0--0-0----0--0----0--------------------------------------------|
|---8----8-8--8-9----7--7----5--------------------------------------------|
|---0----0-0--0-0----0--0----0--------------------------------------------|
|---9----9-9--9-9----7--7----5--------------------------------------------|
|---7----7-7--7-7----5--5----3--------------------------------------------|
|---0----0-0--0-0---------------------------------------------------------|

Chorus:
|---3---2-3-2----------3---0---0---0-----------------------------------|
|---3---3-3-3----------3---0---0---0-----------------------------------|
|---0---2-0-2- repeat--0---6---9---11----------------------------------|
|---2---0-0-0----------2---7---10--12----------------------------------|
|---3---x-x-x----------3---7---10--12----------------------------------|
|-------2-3-2--------------5---8---10----------------------------------|

Break Part: (start off just hitting 022xxx a few times palm muted)
|----------------------------------------------2---2-2---2---------|
|-------------3---3-3---3----------------------3---3-3---3---------|
|-------------0---0-0---0- repeat -------------2---2-2---2---------|
|----------0--0---0-0---0-------------------0--0---0-0---0---------|
|--------0----3---3-3---3-----------------0------------------------|
|--0-2-3----------------------------0-2-3--------------------------|

|--------------2-----2-----------------------------------------|
|--------------3-----0-----------------------------------------|
|--------------2-----2-----------------------------------------|
|----------0---0-----1-----------------------------------------|
|--------0-----------2-----------------------------------------|
|--0-2-3-------------------------------------------------------|

Chorus Ending Variation: (this is right before the song gets quiet again)
                         (play the last chord until end of loud part)
|---3---0---0----0---0----0-----------------------------------------------|
|---3---0---0----0---0----0-----------------------------------------------|
|---0---6---9----6---9----11----------------------------------------------|
|---2---7---10---7---10---12----------------------------------------------|
|---3---7---10---7---10---12----------------------------------------------|
|-------5---8----5---8----10----------------------------------------------|

tabbed by zipztabs.com
Enjoy!  


Fuel albums
2003 Natural Selection
2000 Something Like Human
1998 Sunburn
Something Like Human tabs
01Last Time tabbass tab
02Hemorrhage (In My Hands) tabbass tab
03Empty Spaces tabbass tab
04Scar tabbass tab
05Bad Day tabbass tab
06Prove tabbass tab
08Down tabbass tab
11Innocent tabbass tab

 

1