Search tabs:
Browse artists: 0-9 | A | B | C | D | E | F | G | H | I | J | K | L | M | N | O | P | Q | R | S | T | U | V | W | X | Y | Z
/ Fuel / Something Like Human (2000) / Scar guitar tab

Author/Artist: Fuel
Title: Scar
Album: Something Like human
Transcribed by: Leonard Costa Leite
Email: leonard729@hotmail.com

this is from something like human this tab is not 100 %
complete it does not have the solo i will tabb this out in the
future. Any help would be appreciated i would also like
the tab for hemmorrage.

#This tab may not be used with out the transcibers permision#
It is drop D tuning

eBGDAD

Intro/Verse
-----------------------|
-----------------------|
-----------------------|
-----------------------|
------------0-8b--0-10b|
-0-0-5b6-00------------|
Chase the scar through my head .......

Pre chorus
---------------------|
---------------------|
---------------------|
---------------------|
---------------------|
-0-0-10-0-9-0-0-9-10-|
 When you're gone ill belong nothings the same round here....

Chorus

-5-5-7-7-3-3-5-|
-5-5-7-7-3-3-5-|
-7-7-9-9-5-5-7-|
-5-5-7-7-3-3-5-|
-5-5-7-7-3-3-5-|
-5-5-7-7-3-3-5-|
Falling fall out break free break out.....

By Leonard Costa Leite


Fuel albums
2003 Natural Selection
2000 Something Like Human
1998 Sunburn
Something Like Human tabs
01Last Time tabbass tab
02Hemorrhage (In My Hands) tabbass tab
03Empty Spaces tabbass tab
04Scar tabbass tab
05Bad Day tabbass tab
06Prove tabbass tab
08Down tabbass tab
11Innocent tabbass tab

 

1