Search tabs:
Browse artists: 0-9 | A | B | C | D | E | F | G | H | I | J | K | L | M | N | O | P | Q | R | S | T | U | V | W | X | Y | Z
/ / / guitar tab

Wah Wah
George Harrison
Tabbed by Wicho0


Intro


            E
E||--------0----------0--------|--------0----------0--------|
B||--------0----0h2h3----0-----|--------0----0h2h3----0-----|
G||-----1------------------2-1-|-----1------------------2-1-|
D||----------------------------|----------------------------|
A||----------------------------|----------------------------|
E||--0-------------------------|--0-------------------------|



--------0----------0--------|--------0----------0--------||
--------0----0h2h3----0-----|--------0----0h2h3----0-----||
-----1------------------2-1-|-----1------------------2-1-||
----------------------------|----------------------------||
----------------------------|----------------------------||
--0-------------------------|--0-------------------------||



 E
Wah Wah (riff)
Ab               F#7
You've given me a wah-wah
F#m7               B7
And I'm thinking of you (second riff)
F#m7               B7
And all the things that we used to do
D          D7
Wah-wah, wah-wah

INTRO

E
Wah-wah
Ab                F#7
You made me such a big star
F#m7               B7
Being there at the right time (second riff)
F#m7               B7
Cheaper than a dime
D7                    D75
Wah-wah, you've given me your wah-wah, wah-wah (intro riff)

A                          E (intro riff)
Oh, you don't see me crying
A                          E (intro riff)   B
Oh, you don't hear me sighing


E-mail me at luis_marty@hotmail.com for corrections and stuff
Keep on rocki'n in the free world!!


albums
tabs

 

1