Search tabs:
Browse artists: 0-9 | A | B | C | D | E | F | G | H | I | J | K | L | M | N | O | P | Q | R | S | T | U | V | W | X | Y | Z
/ / / guitar tab

A Day Is Far Too Long


Am            C          G             Em F
On sticks and sand, lost my money, lost my hands
Am          C               G      Em F
Blood on my brain, too much salt in my veins
    Dm      C         G
And I thought pain was clean
    Dm        C          G
And I thought hearts were strong
    Dm       C          G
But bones aren't sticks anymore
      Dm     C        Em/G
And a day is far too long 


Am      C         G         Em F
So many days never needing any grace
Am             C                G            Em F
Live for kicks and danger, there'd be beauty anyway


Outro:
E --------------------------------------------------------------
B --------------------------------------------------------------
G --------------------------------------------------------------
D -2-2-2-2-2-2-2-2--2-2-2-2-2-2-2-2/--9--9--9--9--9--9--9--9----
A -4-4-4-4-4-4-4-4--3-3-3-3-3-3-3-3/-10-10-10-10-10-10-10-10/---
E -0-0-0-0-0-0-0-0--0-0-0-0-0-0-0-0---0--0--0--0--0--0--0--0----


E ----------------------------
B ----------------------------
G ----------------------------
D ----------------------------
A -14-14-14-14-14-14-14-14----
E --0--0--0--0--0--0--0--0----
 


albums
tabs

 

1