Search tabs:
Browse artists: 0-9 | A | B | C | D | E | F | G | H | I | J | K | L | M | N | O | P | Q | R | S | T | U | V | W | X | Y | Z
/ / / guitar tab


Date: Sat, April 10 1999
From: Peter Ferragine (pferragine@interhop.net)
Group: Green Day
Album: Kerplunk
Released: 1991 lookout records
Track: 11
Title: who wrote holden caulfield?

pm - palm mute


verse
pm___| |___| |___| |___| |___| |___| |___| |___| 
|-------------------------------------------------
|-------------------------------------------------
|-8-8-8-8-8-8-8-8-8-8-8-8-6-6-6-6-6-6-6-6-6-6-6-6-
|-8-8-8-8-8-8-8-8-8-8-8-8-6-6-6-6-6-6-6-6-6-6-6-6-
|-6-6-6-6-6-6-6-6-6-6-6-6-4-4-4-4-4-4-4-4-4-4-4-4-
|-------------------------------------------------
 |___| |___| |___| |___| |___| |___| |___| |___|
 -------------------------------------------------|
 -------------------------------------------------|
 -------------------------------------------------|
 -6-6-6-6-6-6-6-6-6-6-6-6-8-8-8-8-8-8-8-8-8-8-8-8-|
 -6-6-6-6-6-6-6-6-6-6-6-6-8-8-8-8-8-8-8-8-8-8-8-8-|
 -4-4-4-4-4-4-4-4-4-4-4-4-6-6-6-6-6-6-6-6-6-6-6-6-|

pre chorus

|---------------------------------------------------------|
|---------------------------------------------------------|
|---------------------------------------------------------|
|-3-3-3-3-3-3-3-6-6-6-6-6-6-6-3-3-3-3-3-3-3-6-6-6-6-6-6-6-|
|-3-3-3-3-3-3-3-6-6-6-6-6-6-6-3-3-3-3-3-3-3-6-6-6-6-6-6-6-|
|-1-1-1-1-1-1-1-4-4-4-4-4-4-4-1-1-1-1-1-1-1-4-4-4-4-4-4-4-|

chorus

|-------------------------------------------------|
|-------------------------------------------------|
|-8-8-8-8-8-8-------------6-6-6-6-6-6-------------|
|-8-8-8-8-8-8-8-8-8-8-8-8-6-6-6-6-6-6-6-6-6-6-6-6-|
|-6-6-6-6-6-6-8-8-8-8-8-8-4-4-4-4-4-4-6-6-6-6-6-6-|
|-------------6-6-6-6-6-6-------------4-4-4-4-4-4-|

lyrics

a thought burst in my head and i need to tell you 
it's some news that i forthought
or was it just a dream that happened long ago 
i think i just forgot
well it hasn't been the first time
and it sure does drive me mad
there's a boy who fogs his world and now he's getting lazy
there's no motivation and frustration makes him crazy
he makes a plan to take a stand but always ends up sitting
someone help him up or he is gonna end up quitting
i shuffle through my mind to see if i can find the world i left behind
was it just a dream that happened long ago...oh, well nevermind


albums
tabs

 

1