Search tabs:
Browse artists: 0-9 | A | B | C | D | E | F | G | H | I | J | K | L | M | N | O | P | Q | R | S | T | U | V | W | X | Y | Z
/ / / guitar tab


Date: Tues, Aug 03 1999
From: Peter Ferragine (pferragine@interhop.net)
Group: Green Day
Album: Nimrod
Released: 1997 reprise records
Track: 17
Title: good riddance (time of your life)

**I wrote in the chords so it's easier for finger positions**

to make the song easier, don't try to pick each individual note, 
kinda strum along as well as a little picking here and there

intro
G
|----------------------------|
|----------------------------|
|-------0-------------0------|
|----------0-------------0---|
|----------------------------|
|-3--3----------3--3---------|

verse
G                      C9         Dsus4
|---------------------------------------------|
|-------3----------3-----------3---------3----|      
|----------0---------0-----------0-----2---2--|
|---0-----------0-----------2--------0--------|
|------------------------3--------------------|
|-3-----------3-------------------------------|

post-verse
Em        Dsus4      C9         G          
|---------------------------------------------|
|-----3---------3----------3---------3--------|
|-------0-----2---2----------0---------0------|
|---2-------0------------2---------0----------|
|----------------------3----------------------|
|-0------------------------------3------------| 

chorus
Em         G         Em        G       Em        Dsus4
|---------------------------------------------------------|
|-----3---------3---------3--------3---------3-------3----|
|-------0---------0---------0--------0---------0-------2--|
|---2---------0---------2--------0---------2-------0------|
|---------------------------------------------------------|
|-0---------3---------0--------3---------0----------------|

outro
Dsus4      G
|----------3--|
|----------3--|
|-2--------0--|
|----0-----0--|
|-------0--2--|
|----------3--|

lyrics

another turning point a fork stuck in the road 
time grabs you by the wrist directs you where to go
so make the best of this test and don't ask why
it's not a question but a lesson learned in time
it's something unpredictable but in the end it's right
i hope you had the time of your life
so take the photographs and stillframes in your mind
hang it on a shelf of good health and good time 
tatoos and memories and dead skin on trial
for what it's worth it was worth all the while
i hope you had the time of your life


albums
tabs

 

1