Search tabs:
Browse artists: 0-9 | A | B | C | D | E | F | G | H | I | J | K | L | M | N | O | P | Q | R | S | T | U | V | W | X | Y | Z
/ Guns N' Roses / Lies (1988) / Reckless Life guitar tab

Reckless life
Guns N' Roses
GN'R Lies

Tabbed by:   Cedric              Stephen Iggulden (solos)
             skyeater@aol.com    dwigg@interlog.com

Well this is a tab I took from a french magazine, enjoy...
So here's the tab:

|------------------------|----------------------|-x----2-------|
|------------------------|----------------------|-x----3-------|
|------------------2-2-2-|----------------2-2-2-|-x----2-------|
|------------------2-2-2-|----------------2-2-2-|------0-------| 
|---3qb-(0)-0------0-0-0-|-3qb-p0-0-------0-0-0-|--------------|
|--------------3fb-------|----------3fb---------|--------------|

|-----------------|-----------------------|--------------------|
|--5---x-(5)------|-----------------------|--------------------|
|--5---x--5-------|-----------------2-2-2-|--------------2-2-2-|
|--5---x--5-------|-----------------2-2-2-|--------------2-2-2-|
|--3---x--3---0-0-|-3qb-0-(0)-------0-0-0-|-3qb-p0-0-----0-0-0-|
|-----------------|------------3fb--------|----------3fb-------|

|--3-------------|-2---x---2----------|------------------------|
|--3-------------|-3---x---3----------|------------------------|
|--0-------------|-2---x---2----------|------------------2-2-2-|
|--0-------------|-0---x---0----------|------------------2-2-2-|
|----------------|---------------0--0-|-3qb-(0)-0--------0-0-0-|
|--3-------------|--------------------|-----------3fb----------|

|-----------------------|-x----2------|------------------------|
|-----------------------|-x----3------|-5---x----(5)-----------|
|-----------------2-2-2-|-x----2------|-5---x-----5------------|
|-----------------2-2-2-|------0------|-5---x-----5------------|
|--3qb-p0-0-------0-0-0-|-------------|-3---x-----3------0-0---|
|------------3fb--------|-------------|------------------------|

|--------------------------|-----------------------|-3----|-2--|
|--------------------------|-----------------------|-3----|-3--|
|--------------------2-2-2-|-----------------2-2-2-|-0----|-2--|
|--------------------2-2-2-|-----------------2-2-2-|-0----|-0--|
|--3qb-0-(0)---------0-0-0-|-3qb-p0-0--------0-0-0-|------|----|
|-------------3fb----------|-----------3fb---------|-3----|----|

Well, That's it! 
For commentaries, tab-search and marriage demand, write to skyeater@aol.com...

  First Guitar Solo:
|----------------16-17-19-17h19p17-16h17p16h17p16-16-------------------|
|-19fb~~~~~~~~~--------------------------------------19p18-19p18p17-18-|
|----------------------------------------------------------------------|
|----------------------------------------------------------------------|
|----------------------------------------------------------------------|
|----------------------------------------------------------------------|

|----------------------------------------------------------------------------|
|-17h18p17\16-17-16h17p16----16-16fb---19--------------14----------14--------|
|-------------------------19--------------16--(16)fb------r17-17fb----r17~~~-|
|----------------------------------------------------------------------------|
|----------------------------------------------------------------------------|
|----------------------------------------------------------------------------|

|-/10h11h12fb~~~~---16-16-14-13h14p13--14p13\12h13p12\11h12p11--12-10p9-10-7----|
|-----------------0----------------------------------------------------------10-|
|-------------------------------------------------------------------------------|
|-------------------------------------------------------------------------------|
|-------------------------------------------------------------------------------|
|-------------------------------------------------------------------------------|

|-7h9p7------------7----------------------------------------------------------10~~~~----|
|-------10p9-9h10----7-9-10-7---7h9p7---7-----------------------------------------------|
|-----------------------------9-------9---9fb--9fbrp7qb---9---7qb---7hb----7----------0-|
|-------------------------------------------------------9---9-----9------9--------------|
|---------------------------------------------------------------------------------------|
|---------------------------------------------------------------------------------------|

 Second Guitar Solo:
|--------9-----------9-----------9-----------12------9-|
|-12hbfb---12p9-12fb---12p9--------12p9-12fb----12p9---|
|---------------------------11fb-----------------------|
|------------------------------------------------------|
|------------------------------------------------------|
|------------------------------------------------------|

|---------9---------9-----------------------------9------12fb---12-11-12-|
|-12p9h12---12p9h12---12p9-12p9h12-9h12p9-12p9h12---12p9-----------------|
|------------------------------------------------------------------------|
|------------------------------------------------------------------------|
|------------------------------------------------------------------------|
|------------------------------------------------------------------------|

|-9h11p9----9------9-------------------------------------------------------|
|--------12---12fb---12p9--------9h12p9----12p9-12-------------------------|
|--------------------------11h12--------12---------11fbrp9-11~~-9~~-11-9fb-|
|--------------------------------------------------------------------------|
|--------------------------------------------------------------------------|
|--------------------------------------------------------------------------|

|------------------------------------------------------------------9-------|
|-12--/(12)~~~(12)--11p9h12--(12)p11p9--(9)\--12--(12)\--12p0-12fb---12-9--|
|--------------------------------------------------------------------------|
|--------------------------------------------------------------------------|
|--------------------------------------------------------------------------|
|--------------------------------------------------------------------------|

|-----------------------------------------------------------------------------|
|------------9--------------9-------------------------------------------------|
|-r11p9-11fb---11fbrp9-11qb---9qb----11-9qb-----------------------------------|
|---------------------------------11-11-9qb-11-9------------------------------|
|------------------------------------------------11\9-7-9h10h11-9-7qb---9-7-7-|
|---------------------------------------------------------------------9-------|

|-----------------------------------------------------|
|-/12--12--12/13--12-12-------13-------14-14/15\------|
|-/13--13--13/14--13-13-13/14----14/15----15/16\------|
|-----------------------------------------------------|
|-----------------------------------------------------|
|-----------------------------------------------------|

Notation:
x - dead note  qb - quarter bend
p - pull-off   fb - full bend

*****************************************************
|    Appetite for tablatures home page              |
|    http://www.geocities.com/SunsetStrip/7317/     |
*****************************************************


Guns N' Roses albums
1999 G N' R Lies
1993 The Spaghetti Incident?
1991 Use Your Illusion Vol. 2
1991 Use Your Illusion Vol. 1
1988 Lies
1987 Appetite For Destruction
Lies tabs
01One In A Million tabbass tab
02Nice Boys tabbass tab
03Reckless Life tabbass tab
04You're Crazy (acoustic) tabbass tab
05Patience (acoustic) tabbass tab
06Mama Kin tabbass tab
07Used To Love Her (acoustic) tabbass tab
08Move To The City tabbass tab

 

1