Search tabs:
Browse artists: 0-9 | A | B | C | D | E | F | G | H | I | J | K | L | M | N | O | P | Q | R | S | T | U | V | W | X | Y | Z
/ Guns N' Roses / Use Your Illusion Vol. 2 (1991) / Breakdown guitar tab

GNR - Breakdown

Intro (banjo):

E||--------------------|-----------------------------------|
B||--------------------|--------10----10h12----------------|
G||----------------7-7-|--9/11--------------11\9--7----9-7-|
D||--------------------|-----------------------------------|
A||--------------------|-----------------------------------|
E||--------------------|-----------------------------------|



-----------------------|-------------------------|---------------------|
-----------------------|-------------------------|---------------------|
-------------------7-9-|--9b-9----7-9-9b---9b--7-|--9------------------|
------9----------------|-------------------------|-----------------7-9-|
--10-------------------|-------------------------|---------------------|
-----------------------|-------------------------|---------------------|


  Guitar 1
  ---------------------------------|--10---10-----------------|
  ---------------------10--12------|------------12------------|
  --7h9-7----9p7-9/11--------------|----------------12--------|
  -----------------------------12--|--------------------------|
  ---------------------------------|--------------------------|
  ---------------------------------|--------------------------|

  Guiatr 2
  -------------------------------|-----------------------------|
  ---------------7--10-----------|-----7-10--------------------|
  --7h9-7----9p7--------11\9--7--|--9b------9b9-7---9-7--------|
  -------------------------------|----------------9-----0------|
  -------------------------------|-----------------------------|
  -------------------------------|-----------------------------|

  Guiatr 1
  ---------------------------------------|-------------------|
  --12-12-10-------10--------------------|-------------------|
  -----------10h11----11\9-7-9b---9r-7---|--7----------------|
  -------------------------------------9-|-------------------|
  ---------------------------------------|-------------------|
  ---------------------------------------|-------------------|

  Guitar 2
  --------------------------------|-------------------|
  -------------------7-10---------|-------------------|
  --7h9p7--7--9-7-9b------9b9-7---|--7----------------|
  ------------------------------9-|-------------------|
  --------------------------------|-------------------|
  --------------------------------|-------------------|


Here comes the keyboard

------------------|------------------|--------------------|
------------------|------------------|------------15b-----|
------------------|------------------|--------------------|
------------------|------------------|--------------------|
------------------|------------------|--------------------|
------------------|------------------|--------------------|



----------17~-------------|----------------------|----------------------|
--15~-----15~------17r-15-|--17~-----------17b---|--15~-------------12r-|
--------------------------|----------------------|----------------------|
--------------------------|----------------------|----------------------|
--------------------------|----------------------|----------------------|
--------------------------|----------------------|----------------------|



--------------------|---------------------|-------------------|
--10~---------------|--7r-------7---------|--3----------------|
--------------------|----------------7r---|--2----------------|
--------------------|---------------------|--0----------------|
--------------------|---------------------|-------------------|
--------------------|---------------------|-------------------|



-------------------|-------------------|-------------------|
--3----------------|--3----------------|--5----------------|
--0----------------|--0----------------|--2----------------|
-------------------|--0----------------|--2----------------|
--3----------------|--2----------------|--0----------------|
-------------------|-------------------|-------------------|



----------------------|---------------------|---------------------|
--3-------------------|--3------------------|--3------------------|
--2-------------------|--0------------------|--0------------------|
--0-------------------|-----------------0---|--0------------------|
-----------------0-2--|--3------------3-----|--2------------2-3---|
---------------2------|---------------------|---------------------|



-----------------------|---------------------|-------------------|
-----------------------|--3--------3---------|--3----------------|
--2------------x-2-x-2-|--0--------2----2----|--2----------------|
--2------------x-2-x-2-|--0--------0----2----|--0----------------|
--0------------x-0-x-0-|----------------0----|-------------------|
-----------------------|--3--------2---------|-------------------|


------------------|------3--3-----3--3-----0-0-|------2--2-----2--2-----0-0-|
------------------|-----------3--------3/5-----|-----------3--------3/5-----|
------------------|--0-------------------------|--2-------------------------|
------------------|----------------------------|--0-------------------------|
------------------|----------------------------|----------------------------|
------------------|----------------------------|----------------------------|



------3--3------3--3-----0-0-|-------2--2------2--2-----0-0-|
-----------3---------3/5-----|------------3---------3/5-----|
--0-----------0--------------|--2--2---------2--------------|
--0--------------------------|--0--0------------------------|
-----------------------------|------------------------------|
-----------------------------|------------------------------|


--------------------|------------------------|------------------------|
--------------------|------------------------|------------------------|
--------------------|--2----------2-------5--|----5--------5----------|
--------------------|--0----x--x--0----x--0--|----0--x--x--0----x--x--|
--------------------|------------------------|------------------------|
--------------17\---|------------------------|------------------------|



------------------------|------------------------|------------------------|
--2----------2-------2--|----2--------2----------|------------------------|
--2----------2-------2--|----2--------2----------|--4----------4-------4--|
--2----x--x--2----x--2--|----2--x--x--2----x--x--|--5----------5-------5--|
--0----x--x--0----x--0--|----0--x--x--0----x--x--|--5----x--x--5----x--5--|
------------------------|------------------------|--3----x--x--3----x--3--|



------------------------|-----------------------|------------------------|
------------------------|-----------------------|------------------------|
----4--------4----------|--5----4----2h-4----5--|----5--4-----2----------|
----5--------5----------|--0----0----0-------0--|----0--0--x--0----x--x--|
----5--x--x--5----x--x--|-----------------------|------------------------|
----3--x--x--3----x--x--|-----------------------|------------------------|



------------------------|------------------------|------------------------|
---------------------2--|----2--------2----------|------------------------|
--4----------4-------2--|----2--------2----------|---------------------4--|
--5----------5-------2--|----2--x--x--2----x--x--|---------------------5--|
--5----x--x--5----x--0--|----0--x--x--0----x--x--|--5----x--x--5----x--5--|
--3----x--x--3----x-----|------------------------|--2----x--x--2----x--3--|



------------------------|------------------------|------------------------|
------------------------|------------------------|------------------------|
----4--------4----------|--4----------4-------4--|----4--------4----------|
----5--------5----------|--5----------5-------5--|----5--------5----------|
----5--x--x--5----x--x--|--5----x--x--5----x--5--|----5--x--x--5----x--x--|
----3--x--x--3----x--x--|--3----x--x--3----x--3--|----3--x--x--3----x--x--|



------------------------|------------------------|------------------------|
------------------------|--2----------2-------2--|----2--------2----------|
--4----------4----------|--2----------2-------2--|----2--------2----------|
--5----------5----------|--2----x--x--2----x--2--|----2--x--x--2----x--x--|
--5----x--x--5----x--x--|--0----x--x--0----x--0--|----0--x--x--0----x--x--|
--3----x--x--3----x--x--|------------------------|------------------------|



------------------------|------------------------|------------------------|
--2----------2-------2--|----2--------2----------|--2----------2----------|
--2----------2-------2--|----2--------2----------|--2----------2----------|
--2----x--x--2----x--2--|----2--x--x--2----x--x--|--2----x--x--2----x--x--|
--0----x--x--0----x--0--|----0--x--x--0----x--x--|--0----x--x--0----x--x--|
------------------------|------------------------|------------------------|



-------------------|------------------|------------------|------------------|
--3----------------|------------------|------------------|------------------|
--2----------------|------------------|------------------|------------------|
--0----------------|------------------|------------------|------------------|
-------------------|------------------|------------------|------------------|
-------------------|------------------|------------------|------------------|



-------------------|------------------|------------------|--------------------|
-------------------|------------------|------------------|--------------------|
--4----------------|------------------|------------------|--------------------|
--5----------------|------------------|------------------|--------------------|
--5----------------|------------------|------------------|--------------x--x--|
--3----------------|------------------|------------------|--------------x--x--|



-----------------------|------------------------|-----------------------|
-----------------------|------------------------|-----------------------|
--2----x--2----x--2----|--x--x--2----4----x--x--|--2----x--2----x--2----|
--0----x--0----x--0----|--x--x--0----0----x--x--|--0----x--0----x--0----|
-----------------------|------------------------|-----------------------|
-----------------------|------------------------|-----------------------|



------------------------|------------------------|------------------------|
------------------------|------------------------|------------------------|
--x--x--2----4----x--x--|--2----------2-------5--|----5--------5----------|
--x--x--0----0----x--x--|--0----x--x--0----x--0--|----0--x--x--0----x--x--|
------------------------|------------------------|------------------------|
------------------------|------------------------|------------------------|



------------------------|------------------------|------------------------|
--2----------2-------2--|----2--------2----------|------------------------|
--2----------2-------2--|----2--------2----------|--4----------4-------4--|
--2----x--x--2----x--2--|----2--x--x--2----x--x--|--5----------5-------5--|
--0----x--x--0----x--0--|----0--x--x--0----x--x--|--5----x--x--5----x--5--|
------------------------|------------------------|--3----x--x--3----x--3--|



------------------------|-----------------------|------------------------|
------------------------|-----------------------|------------------------|
----4--------4----------|--5----4----2h-4----5--|----5--4-----2----------|
----5--------5----------|--0----0----0-------0--|----0--0--x--0----x--x--|
----5--x--x--5----x--x--|-----------------------|------------------------|
----3--x--x--3----x--x--|-----------------------|------------------------|



------------------------|------------------------|------------------------|
---------------------2--|----2--------2----------|------------------------|
--4----------4-------2--|----2--------2----------|---------------------4--|
--5----------5-------2--|----2--x--x--2----x--x--|---------------------5--|
--5----x--x--5----x--0--|----0--x--x--0----x--x--|--5----x--x--5----x--5--|
--3----x--x--3----x-----|------------------------|--2----x--x--2----x--3--|



------------------------|------------------------|------------------------|
------------------------|------------------------|------------------------|
----4--------4----------|--4----------4-------4--|----4--------4----------|
----5--------5----------|--5----------5-------5--|----5--------5----------|
----5--x--x--5----x--x--|--5----x--x--5----x--5--|----5--x--x--5----x--x--|
----3--x--x--3----x--x--|--3----x--x--3----x--3--|----3--x--x--3----x--x--|



------------------------|------------------------|------------------------|
------------------------|--2----------2-------2--|----2--------2----------|
--4----------4----------|--2----------2-------2--|----2--------2----------|
--5----------5----------|--2----x--x--2----x--2--|----2--x--x--2----x--x--|
--5----x--x--5----x--x--|--0----x--x--0----x--0--|----0--x--x--0----x--x--|
--3----x--x--3----x--x--|------------------------|------------------------|



------------------------|------------------------|------------------------|
--2----------2-------2--|----2--------2----------|--2----------2----------|
--2----------2-------2--|----2--------2----------|--2----------2----------|
--2----x--x--2----x--2--|----2--x--x--2----x--x--|--2----x--x--2----x--x--|
--0----x--x--0----x--0--|----0--x--x--0----x--x--|--0----x--x--0----x--x--|
------------------------|------------------------|------------------------|



-------------------|------------------|------------------|------------------|
--3----------------|------------------|------------------|------------------|
--2----------------|------------------|------------------|------------------|
--0----------------|------------------|------------------|------------------|
-------------------|------------------|------------------|------------------|
-------------------|------------------|------------------|------------------|



-------------------|------------------|------------------|------------------|
-------------------|------------------|------------------|------------------|
--4----------------|------------------|------------------|------------------|
--5----------------|------------------|------------------|------------------|
--5----------------|------------------|------------------|------------------|
--3----------------|------------------|------------------|------------------|



-----------------------|------------------------|-----------------------|
--3------3--------3----|--------3----3----------|-----------------------|
--2------2--x--x--2----|--x--x--2----2----x--x--|--4------4--------4----|
--0------0--x--x--0----|--x--x--0----0----x--x--|--5------5--------5----|
-----------------------|------------------------|--5------5--x--x--5----|
-----------------------|------------------------|--3------3--x--x--3----|



------------------------|-----------------------|------------------------|
------------------------|-----------------------|------------------------|
--------4----4----------|--4------4--------4----|--------4----4----------|
--------5----5----------|--5------5--------5----|--------5----5----------|
--x--x--5----5----x--x--|--5------5--x--x--5----|--x--x--5----5----x--x--|
--x--x--3----3----x--x--|--3------3--x--x--3----|--x--x--3----3----x--x--|



-----------------------|------------------------|-----------------------|
--3------3--------3----|--------3----3----------|--3------3--------3----|
--2------2--x--x--2----|--x--x--2----2----x--x--|--2------2--x--x--2----|
--0------0--x--x--0----|--x--x--0----0----x--x--|--0------0--x--x--0----|
-----------------------|------------------------|-----------------------|
-----------------------|------------------------|-----------------------|



------------------------|-----------------------|------------------------|
--------3----3----------|-----------------------|------------------------|
--x--x--2----2----x--x--|--4------4--------4----|--------4----4----------|
--x--x--0----0----x--x--|--5------5--------5----|--------5----5----------|
------------------------|--5------5--x--x--5----|--x--x--5----5----x--x--|
------------------------|--3------3--x--x--3----|--x--x--3----3----x--x--|



-----------------------|------------------------|-----------------------|
-----------------------|------------------------|--2------2--------2----|
--4------4--------4----|--------4----4----------|--2------2--------2----|
--5------5--------5----|--------5----5----------|--2------2--x--x--2----|
--5------5--x--x--5----|--x--x--5----5----x--x--|--0------0--x--x--0----|
--3------3--x--x--3----|--x--x--3----3----x--x--|-----------------------|



------------------------|-----------------------|-----------------------|
--------2----2----------|--2------2--------2----|-----------------------|
--------2----2----------|--2------2--------2----|-----------------------|
--x--x--2----2----x--x--|--2------2--x--x--2----|--x--x--4----5----4----|
--x--x--0----0----x--x--|--0------0--x--x--0----|--x--x-----------------|
------------------------|-----------------------|-----------------------|

Guitar Solo

E||--------10----------10----------|--10------------10------10------|
B||--13b-------10--13b-----10--13b-|------13b-12b-------13------13--|
G||--------------------------------|----------12b-------------------|
D||--------------------------------|--------------------------------|
A||--------------------------------|--------------------------------|
E||--------------------------------|--------------------------------|



--12b---12--10--12------10--12--|--13--12--13p12p10--12~---10--12--|
--------------------13----------|----------------------------------|
--------------------------------|----------------------------------|
--------------------------------|----------------------------------|
--------------------------------|----------------------------------|
--------------------------------|----------------------------------|



--13b---13--12--13--12--13p-10----|--13------10--13p10-----10--------|
-------------------------------13-|------13------------13------13b---|
----------------------------------|----------------------------------|
----------------------------------|----------------------------------|
----------------------------------|----------------------------------|
----------------------------------|----------------------------------|



--10--------13--15--15r---13--|--15p-14--15b-------15p-13--|
------13b---------------------|----------------------------|
------------------------------|----------------------------|
------------------------------|----------------------------|
------------------------------|----------------------------|
------------------------------|----------------------------|



--15--15r---13----13------13h-14--|--0--17b-------------|
---------------15-----15----------|---------------------|
----------------------------------|---------------------|
----------------------------------|---------------------|
----------------------------------|---------------------|
----------------------------------|---------------------|



------17------------------|----17------------------------|
------------15----15--17b-|--------17r---15------15--18--|
--------------------------|------------------14----------|
--------------------------|------------------------------|
--------------------------|------------------------------|
--------------------------|------------------------------|



------------------------------------|--------10--------------------------------|
--17--18p-17p15-----15--15----------|--13b-------13--10--13p12p10----13--10-10-|
----------------15----------17\-12--|-----------------------------13-----------|
------------------------------------|------------------------------------------|
------------------------------------|------------------------------------------|
------------------------------------|------------------------------------------|



------------------10--------------10-----------|
--13p10----10---------13p10----10----13p10-----|
--------13----12b-----------12b------------12b-|
-----------------------------------------------|
-----------------------------------------------|
-----------------------------------------------|



--------------------------------------|----------------------------|
--------------------------------------|--12~-----10h12-10b---10b---|
--12--12--10-----12---10--------------|--12~-----10h12-10b---10b---|
--------------12----------12p-10------|----------------------------|
----------------------------------12--|----------------------------|
--------------------------------------|----------------------------|



--------------------|------------------|------------------|------------------|
--------------------|------------------|------------------|------------------|
--------------------|------------------|------------------|------------------|
--12~---------------|------------------|------------------|------------------|
--------------------|------------------|------------------|------------------|
--------------------|------------------|------------------|------------------|




------------------|--------10--10------10--10------|
------------------|--------10--10------10--10------|
------------------|--12b-----------12b---------12b-|
------------------|--------------------------------|
------------------|--------------------------------|
------------------|--------------------------------|



--10--10------10--10------10--10--|----------------------------------|
--10--10------10--10------10--10--|------10------10------10------10--|
----------12b---------12b---------|--12b-----12b-----12b-----12b-----|
----------------------------------|----------------------------------|
----------------------------------|----------------------------------|
----------------------------------|----------------------------------|



----------------------------------|----------------------------------|
------10------10------10------10--|--10------10--10------10--10------|
--12b-----12b-----12b-----12b-----|------12b---------12b---------12b-|
----------------------------------|----------------------------------|
----------------------------------|----------------------------------|
----------------------------------|----------------------------------|



----------------------------------|--------------10------------------|
--10--10------10--10------10--10--|------10--10------10--10------10--|
----------12b---------12b---------|--12b---------------------12b-----|
----------------------------------|----------------------------------|
----------------------------------|----------------------------------|
----------------------------------|----------------------------------|



--------------------------------|--------------------------------|
--10------10--10----------------|----------------10------10--10--|
------12b---------12r---10------|--10r-----------10------10--10--|
----------------------------12--|--------12--12------12----------|
--------------------------------|--------------------------------|
--------------------------------|--------------------------------|



------------------------------|----------------------------|
------------------------------|----------------------------|
--10r-------------------------|----------------------------|
--------12--12--12----10------|--10\-9------9\-7-----7\-5--|
--------------------------12--|---------10--------9--------|
------------------------------|----------------------------|



------------------------|----------10------10--10----------|
------------------------|--11/12-------12----------12--10--|
------------------------|----------------------------------|
--3--5--3-----3b--------|----------------------------------|
-----------5-------5----|----------------------------------|
------------------------|----------------------------------|



--13b---13b---10--15--10p-0--|--------20--20----------------|
-----------------------------|--20b-----------20----18------|
-----------------------------|--------------------------19--|
-----------------------------|------------------------------|
-----------------------------|------------------------------|
-----------------------------|------------------------------|



------20b---20b---20b---15r-|--15~-------15~-------|
--18------------------------|----------------------|
----------------------------|----------------------|
----------------------------|----------------------|
----------------------------|----------------------|
----------------------------|----------------------|


--15~---15--15~-----13------|--13--15--15p13---13--13b-10------|
------------------------15--|------------------------------13b-|
----------------------------|----------------------------------|
----------------------------|----------------------------------|
----------------------------|----------------------------------|
----------------------------|----------------------------------|



--10--10------------------------|----------------------------------------------|
----------13--10--12b---10------|--13-13-13-13-13-13-13--13p10-----13----10-13-|
------------------12b-------12--|-------------------------------13----13-------|
--------------------------------|----------------------------------------------|
--------------------------------|----------------------------------------------|
--------------------------------|----------------------------------------------|



------------------13-12--12b-12p10----12-|
--12-13-12-10----------------------13----|
--------------12-------------------------|
-----------------------------------------|
-----------------------------------------|
-----------------------------------------|



------10-12-10----10------10-----10----|
---13----------13----13b------x-----12-|
---------------------------------------|
---------------------------------------|
---------------------------------------|
---------------------------------------|



--------------------------------------------|----------------------------|
--13p10----10-13-----10h13p10----10-----10--|--13--10--13--13~-------13\-|
--------13--------13----------13----12------|----------------------------|
--------------------------------------------|----------------------------|
--------------------------------------------|----------------------------|
--------------------------------------------|----------------------------|



------------------------------|----------------------------------|
------10------10--10------10--|--10------10--10------10--10------|
----------10----------10------|------10----------10----------10--|
------------------------------|----------------------------------|
------------------------------|----------------------------------|
------------------------------|----------------------------------|



----------------------------------|-----------------------------------------|
--10--10------10--10------10------|--x--------10-13--10----10-13--10h13-10--|
----------10----------10------10--|--x-----10------------x------------------|
----------------------------------|-----12----------------------------------|
----------------------------------|-----------------------------------------|
----------------------------------|-----------------------------------------|



--------------------------------------------------|
------10--13--10--13--10------10--13--10--13--10--|
--10----------------------10----------------------|
--------------------------------------------------|
--------------------------------------------------|
--------------------------------------------------|



--------------------------------------------------|
------10--13--10--13--10------10--13--10--13--10--|
--10----------------------10----------------------|
--------------------------------------------------|
--------------------------------------------------|
--------------------------------------------------|



--------------------------------|------------------------|
------10------------------------|------------------------|
--10------12--10--12r--12r--10--|--12~-----------10--12b-|
--------------------------------|------------------------|
--------------------------------|------------------------|
--------------------------------|------------------------|



------------------------------|--------------------------|
------10--13------------------|--12----10--12b-----10----|
--------------12b-12--10--12--|--12----10--12b-----10----|
------------------------------|--------------------------|
------------------------------|--------------------------|
------------------------------|--------------------------|



---------------------------|--------------------------|
--12r---10------10---------|--12b-----10--------------|
------------12--10---------|--12b-----10------12p-10--|
----------------------x----|--------------------------|
---------------------------|--------------------------|
---------------------------|--------------------------|



----------------------------|----------------------------------|
--12r---10------10----12----|--12/-13--13--13--12/-13--13--12/-|
------------12--10----12----|--13/-14--14--14--13/-14--14--13/-|
----------------------------|----------------------------------|
----------------------------|----------------------------------|
----------------------------|----------------------------------|



----------------------------------|----------------------------------|
--13--13--12/-13--13--12/-13--13--|--12/-13--13--12/-13--13--13--12/-|
--14--14--13/-14--14--13/-14--14--|--13/-14--14--13/-14--14--14--13/-|
----------------------------------|----------------------------------|
----------------------------------|----------------------------------|
----------------------------------|----------------------------------|



----------------------------------|-----------------------------|
--13--13--12/-13--13--12/-13--13--|--12/-13--13--12/-13\--------|
--14--14--13/-14--14--13/-14--14--|--13/-14--14--13/-14\--------|
----------------------------------|-----------------------------|
----------------------------------|--------------------------5\-|
----------------------------------|-----------------------------|



---------------------|------------------|------------------|------------------|
---------------------|------------------|------------------|------------------|
-------------x-------|------------------|------------------|------------------|
------x------x----7\-|------------------|------------------|------------------|
------x--------------|------------------|------------------|------------------|
---------------------|------------------|------------------|------------------|



------------------|------------------|--14----------------|
------------------|------------------|--13----------------|
------------------|------------------|--14----------------|
------------------|------------------|--------------------|
------------------|------------------|--------------------|
------------------|------------------|--------------------|



----------2/-3/-4/-5----||
------------------------||
----------2/-3/-4/-5----||
------------------------||
------------------------||
------------------------||


Guns N' Roses albums
1999 G N' R Lies
1993 The Spaghetti Incident?
1991 Use Your Illusion Vol. 2
1991 Use Your Illusion Vol. 1
1988 Lies
1987 Appetite For Destruction
Use Your Illusion Vol. 2 tabs
01Civil War tabbass tab
0214 Years tabbass tab
03Yesterdays tabbass tab
04Knockin' On Heaven's Door tabbass tab
05Get In The Ring tabbass tab
06Shotgun Blues tabbass tab
07Breakdown tabbass tab
08Pretty Tied Up tabbass tab
09Locomotive tabbass tab
10So Fine tabbass tab
11Estranged tabbass tab
12You Could Be Mine tabbass tab
13Don't Cry tabbass tab

 

1