Search tabs:
Browse artists: 0-9 | A | B | C | D | E | F | G | H | I | J | K | L | M | N | O | P | Q | R | S | T | U | V | W | X | Y | Z
/ Hawthorne Heights / The Silence in Black and White (2004) / Silver Bullet guitar tab

by:LeperMessiah             silver bullet

tuning:drop D e b g d a d

e----------------------------------------------------------------------------------
b----------------------------------------------------------------------------------
g---------------------------------------------------------8---9---11--9--8--9--11-- let 11 ring..
d-6-66-666-2-6-66-666-2-6-8-9-66-8-9-2-6-8-9--66-8-9-6-2----9---9---9--9---9-------
a-6-66-666-2-6-66-666-2-6-----66-----2-6------66-----6-2---------------------------
d-6-66-666-2-6-66-666-2-6-----66-----2-6------66-----6-2---------------------------

e-----------------------------------------------------------
b-----------------------------------------------------------
g-----------------------------------------------------------
d-6666666-6-2222222-2-6666666-6-4444444-2-2222-4444444-6----
a-6666666-6-2222222-2-6666666-6-4444444-2-2222-4444444-6----
d-6666666-6-2222222-2-6666666-6-4444444-2-2222-4444444-6----
  .......   .......   .......   .......   .... .......
e-------------------------------------------------------------------------------------
b-------------------------------------------------------------------------------------
g-------------------------------------------------------------------------------------
d-66-444------------2-22-66-44-4-66-44-4-4-66-44-2-3-4-3-4-6664442-3-4-3-4-4--6664442-
a-66-222------------2-22-66-44-2-66-44-2-4-66-44-2-1-2-1-4-6664442-1-2-1-2-4--6664442-
d-66-----9 slide to 2-22-66-44---66-44---4-66-44-2---------6664442---------4--6664442-

if anybody gets the demo version which is slightly differant please contact me at
frozenbyhatred@hotmail.com thanks!!


Hawthorne Heights albums
2004 The Silence in Black and White
The Silence in Black and White tabs
01Life on Standby tabbass tab
02Dissolve and Decay tabbass tab
03Niki FM tabbass tab
04The Transition tabbass tab
05Blue Burns Orange tabbass tab
06Silver Bullet tabbass tab
07Screenwriting an Apology tabbass tab
08Ohio Is for Lovers tabbass tab
09Wake Up Call tabbass tab
10Sandpaper and Silk tabbass tab
11Speeding Up the Octaves tabbass tab

 

1