Search tabs:
Browse artists: 0-9 | A | B | C | D | E | F | G | H | I | J | K | L | M | N | O | P | Q | R | S | T | U | V | W | X | Y | Z
/ / / guitar tab

The Hives - A Get Together To Tear It Apart
Tabbed By: Pseudo
Email: acook1@attbi.com

Tuning: Standard (E A D G B E)

The Verse and Chorus in this song are slightly different. Don't try to
get the rhythm for the verse exactly right.

Verse (after drum intro)
    B7       A7       D    G5
e---7777-777-5555-555-----------------|
B---7777-777-5555-555-7777------------| x2
G---8888-888-6666-666-7777------------|
D---7777-777-5555-555-7777-5555-555---|
A---9999-999-7777-777-5555-5555-555---|
E---7777-777-5555-555------3333-333---|

Pre-Chorus
    D          A5 D  A5
e---------------------------|
B---7-7-7-7-------77--------| x2
G---7-7-7-7-------77--------|
D---7-7-7-7-xx-77-77-7777---|
A---5-5-5-5-xx-77-55-7777---|
E-----------xx-55----5555---|

Chorus
    B7   A    D    G
e---7777-5555------3333---|
B---7777-5555-7777-3333---| x2
G---8888-6666-7777-4444---|
D---7777-7777-7777-5555---|
A---9999-7777-5555-5555---|
E---7777-5555------3333---|


Order of Song:

Drum Intro
Verse 1
Pre-Chorus
Chorus
Pre-Chorus
Verse 2
Pre-Chorus
Chorus x2
Pre-chorus

That's it.


albums
tabs

 

1