Search tabs:
Browse artists: 0-9 | A | B | C | D | E | F | G | H | I | J | K | L | M | N | O | P | Q | R | S | T | U | V | W | X | Y | Z
/ Hootie & The Blowfish / Hootie & the Blowfish (2003) / A Change of Seasons II: Innocence guitar tab

Artist: Hootie and the Blowfish
Title: Innocence
Album: Hootie and the Blowfish
Tabbed By: Brett P

Intro/Verse
E------------------3---------------------------3------------------
B---------------------3------------------------3-----------------
G-----0------------------0---------0-----------------------------
D---------0----------------------------2-------------------------
A-------------2-----------------3---------3-----------------------
E--3------------------------------------------------------------

Note: For the verse, position your fingers as a G and then some kind of C:

E------3------------			E--------3-------------
B------3-----------			B--------3------------
G------0-----------			G--------0------------
D------0-----------			D--------2------------
A------2-----------			A--------3------------
E------3-----------			E--------x------------



Chorus
E--0-------3---------2-------0--------------------------
B--0-------3---------2-------1--------------------------
G--0-------0---------4-------0--------------------------
D--2-------0---------4-------2--------------------------
A--2-------2---------2-------3--------------------------
E--0-------3---------x-------x-------3--2--0-----------
    Em       G          B         C



Bridge
E--0-----0-------0------0-------0-------0---------------------
B--1-----1-------0------1-------1-------1--------------------
G--2-----0-------0------0-------2-------0---------------------
D--2-----2-------0------2-------2-------2----------------------
A--0-----3-------2------3-------0-------3---------------------
E---x-----x------3------x-------x-------x----------------------
   Am     C        ?        C        Am       C


Hootie & The Blowfish albums
2003 Hootie & the Blowfish
1998 Musical Chairs
1996 Fairweather Johnson
1994 Cracked Rear View
Hootie & the Blowfish tabs
03Innocence tabbass tab

 

1