Search tabs:
Browse artists: 0-9 | A | B | C | D | E | F | G | H | I | J | K | L | M | N | O | P | Q | R | S | T | U | V | W | X | Y | Z
/ / / guitar tab

Solo:
e|-----------------------------------------------------------------------|
B|------------------------5----------------------------------------------|
G|----------6---4--6-----------6---4--6----------------------------------|
D|----4------------------------------------------------------------------|
A|-----------------------------------------------------------------------|
E|-----------------------------------------------------------------------|

Intro:
F# F# F# F# F# F# F# F# A A H H
e|---2----2----2----2----2----2----2----2--------5----5------7----7------|
B|---2----2----2----2----2----2----2----2--------5----5------7----7------|
G|---3----3----3----3----3----3----3----3--------6----6------8----8------|
D|---4----4----4----4----4----4----4----4--------7----7------9----9------|
A|---4----4----4----4----4----4----4----4--------7----7------9----9------|
E|---2----2----2----2----2----2----2----2--------5----5------7----7------|

Strophe: x 2
F# F# F# F# A A H H
e|---2----2----2----2--------5----5----------7----7----------------------|
B|---2----2----2----2--------5----5----------7----7----------------------|
G|---3----3----3----3--------6----6----------8----8----------------------|
D|---4----4----4----4--------7----7----------9----9----------------------|
A|---4----4----4----4--------7----7----------9----9----------------------|
E|---2----2----2----2--------5----5----------7----7----------------------|

Bridge :
F# F# F# F#
e|------2----2------2----2-----------------------------------------------|
B|------2----2------2----2-----------------------------------------------|
G|------3----3------3----3-----------------------------------------------|
D|------4----4------4----4-----------------------------------------------|
A|------4----4------4----4-----------------------------------------------|
E|------2----2------2----2-----------------------------------------------|

Chorus:
A A H H F# F# F# F#
e|-----5----5------7----7------2----2----2----2--------------------------|
B|-----5----5------7----7------2----2----2----2--------------------------|
G|-----6----6------8----8------3----3----3----3--------------------------|
D|-----7----7------9----9------4----4----4----4--------------------------|
A|-----7----7------9----9------4----4----4----4--------------------------|
E|-----5----5------7----7------2----2----2----2--------------------------|

A A H H A A H H
e|-----5----5-----7----7-------5----5------7----7------------------------|
B|-----5----5-----7----7-------5----5------7----7------------------------|
G|-----6----6-----8----8-------6----6------8----8------------------------|
D|-----7----7-----9----9-------7----7------9----9------------------------|
A|-----7----7-----9----9-------7----7------9----9------------------------|
E|-----5----5-----7----7-------5----5------7----7------------------------|

Bridge:
F# F# F# F# F# F# F# F#
e|------2----2---------2----2--------2----2---------2----2---------------|
B|------2----2---------2----2--------2----2---------2----2---------------|
G|------3----3---------3----3--------3----3---------3----3---------------|
D|------4----4---------4----4--------4----4---------4----4---------------|
A|----- 4----4---------4----4--------4----4---------4----4---------------|
E|------2----2---------2----2--------2----2---------2----2---------------|

Then Chorus again

Chorus 2: x 2
C# C# A A H H F# F#
e|----4----4------5----5-------7----7------2----2------------------------|
B|----5----5------5----5-------7----7------2----2------------------------|
G|----6----6------6----6-------8----8------3----3------------------------|
D|----6----6------7----7-------9----9------4----4------------------------|
A|----4----4------7----7-------9----9------4----4------------------------|
E|----------------5----5-------7----7------2----2------------------------|

Solo: x 2 (only lead guitar)

Outro:
A A H H A A H H
e|------5----5-----7----7-------5----5------7----7-----------------------|
B|------5----5-----7----7-------5----5------7----7-----------------------|
G|------6----6-----8----8-------6----6------8----8-----------------------|
D|------7----7-----9----9-------7----7------9----9-----------------------|
A|------7----7-----9----9-------7----7------9----9-----------------------|
E|------5----5-----7----7-------5----5------7----7-----------------------|

A A H H F#
e|------5----5-----7----7-------2----------------------------------------|
B|------5----5-----7----7-------2----------------------------------------|
G|------6----6-----8----8-------3----------------------------------------|
D|------7----7-----9----9-------4----------------------------------------|
A|------7----7-----9----9-------4----------------------------------------|
E|------5----5-----7----7-------2----------------------------------------|


albums
tabs

 

1