Search tabs:
Browse artists: 0-9 | A | B | C | D | E | F | G | H | I | J | K | L | M | N | O | P | Q | R | S | T | U | V | W | X | Y | Z
/ Hypocrisy / The Final Chapter (1997) / Dominion guitar tab

HYPOCRISY - DOMINION
                       From the Album - THE FINAL CHAPTER
                         Copyright: NUCLEAR BLAST 1997
                           Version 1.0 - Jan 1, 2001


Transcribed by: James Williams (Inverted)

For Questions, Comments, Newest Version, or Corrections contact
Inverted: at Inverted_one@hotmail.com

Check Out Death8699.com Metaltabs.com or dsrmusic.com for More
Transcriptions:http://www.Death8699.com http://www.Metaltabs.com


 .  - palm mute           /  - slide up to
 \  - slide down to       ~  - vibrato
 h  - hammer on           b  - Bend
 p  - pull off            Suffixes for bend
 t  - tap                 f  - full bend    h - half bend
 ph - pinched harmonic    q  - quarter bend t - tap bend
 *  - see comment         ^  - Hold bend    r release bend
 x  - Stuccatto           ~  - vibrato bend
 ,  - slight palm mute    () - ghost note, sustained note
 "  - tremolo note        <> - Trill

Tuning: "B"E"A"D"

DOMINION !

Riff 1
|------------------------------------------------------|
|------------------------------------------------------|
|------------------------------------------------------|Gtr I
|-----------------------4-5-----------------------5-4--|
|------2h3p2-----2h3p2--2-3------2h3p2-----2h3p2--3-2--|
|--0-0-------0-0-------------0-0-------0-0-------------|
pm . .       . .             . .       . .

Riff 1
|------------------------------------------------------|
|------------------------------------------------------|
|------------------------------------------------------|Gtr II
|------------------------------------------------------|
|-----------------------9-10---------------------10-9--|
|-----------------------7--8----------------------8-7--|

Riff 2
|-------------------------------------------------------|
|-------------------------------------------------------|
|-------------------------------------------------------|
|----------10-9---------10-9---------10-9------6-6-6\5--|
|-----------8-7----------8-7----------8-7------4-4-4\3--|
|--00000000-----00000000-----00000000-----0000----------|

Fill 1 (For Riff 2)
||--------------------------||
||--------------------------||
||--------------------------||
||-----------------6-6-6-5--||
||--2----2----2----4-4-4-3--||
||--0----0----0-------------||
pm                 . . . .

Riff 3-A
|-------------------------|
|-------------------------|
|-------------------------|Gtr I
|-------------------------|
|--7""--9"----------------|
|----------10"-7"--9--10--|

Riff 3-A
|-------------------------|
|-------------------------|
|-------------------------|Gtr II
|-------------------------|
|--7""--9"--------11--12--|
|----------10"-7"--9--10--|

Riff 3-B (Octave)
|--------------------------|
|--------------------------|
|--9""-11"-----------------| Gtr II
|----------12"-9"-11"-12"--|
|--------------------------|
|--------------------------|

Riff 4
|--------------------------------------------------------|
|--------------------------------------------------------|
|--------------------------------------------------------|
|---------------------------------------------------10"--|
|--7"-10"-9"-7""--10"-9"------7"-10"-9"-7""--10"-9"------|
|------------------------10"-----------------------------|

Note* Use a Harmonizer on riffs 5 and 6 for best results.

Riff 5 (Play this part as tromolo picked trills.)
||---------|| |---------------------------------|
||---------|| |---------------------------------|
||---------|| |---------------------------------|
||--2------|| |--7<>9""------10<>12"------------|
||--2------|| |------------------------9<>10"---|
||--0------|| |---------------------------------|

Riff 6
|----------------------------------------------------------|
|----------------------------------------------------------|
|----------------------------------------------------------|
|-------------7--------------------------7-----------------|
|--7--9-10-7----10--9-10-9~---7--9-10-7----10--9-10-9<>10--|
|----------------------------------------------------------|

Riff 6 (Here's a optional Chord version for you too.)
|----------------------------------------------------------|
|----------------------------------------------------------|
|-------------9--------------------------9-----------------|
|--9-11-12-9--7-12-11-12-11---9-11-12-9--7-12-11-12-11-----|
|--7--9-10-7----10--9-10--9---7--9-10-7----10--9-10--9-----|
|----------------------------------------------------------|


 *Listen to the song for the structure.

 Check out my other tabs by Hypocrisy, Obituary, Grave
and Six Feet Under.


Hypocrisy albums
2000 Into The Abyss
1999 Hypocrisy
1999 Hypocrisy Destroys Wacken
1997 The Final Chapter
1996 Abducted
1994 The Fourth Dimension
1993 Osculum Obscenum
1992 Penetrallia
The Final Chapter tabs
01Inseminated Adoption tabbass tab
02A Coming Race tabbass tab
03Dominion tabbass tab
06Request Denied tabbass tab
08Adjusting The Sun tabbass tab
10Evil Invaders tabbass tab
11The Final Chapter tabbass tab

 

1