Search tabs:
Browse artists: 0-9 | A | B | C | D | E | F | G | H | I | J | K | L | M | N | O | P | Q | R | S | T | U | V | W | X | Y | Z
/ In Flames / Jester Race (1995) / Artifacts of the Black Rain guitar tab

IN FLAMES - ARTIFACTS OF THE BLACK RAIN 
From the Album - THE JESTER RACE 
Copyright 1995 Nuclear Blast 
Version 2.0b - August 98 

. - palm mute / - slide up to 
\ - slide down to ~ - vibrato 
" - tremelo picking ( ) - ghost note 
p - pull off h - hammer-on 

Tune To C (C,F,A#,D#,G,C) 



Riff A 
|-------------------------------------------------------| 
|-------------------------------------------------------| 
|:-----------------------7/9-----------------------7/9--| 
|:-10---------10-------------10---------10--------------| 
|-----7-7-7-7----7-7-7-7--------7-7-7-7----7-7-7-7------| 
|-------------------------------------------------------| 
| . . . . . . . . . . . . . . . . | 

|-------------------------------------------------------| 
|-------------------------------------------------------| 
|:------------------------------------------------------| 
|:--2----------2---------4/5--2----------2---------4/5--| 
|---0-0-0-0-0--0-0-0-0-0-2/3--0-0-0-0-0--0-0-0-0-0-2/3--| 
|-------------------------------------------------------| 
. . . . . . . . . . . . . . . . 



|--------------------------------------------------------------| 
|--------------------------------------------------------------| 
|-10----------9---------7-----9-9-9-9-7-7-7-7-5-5-5-5-7-7-7-7-:| 
|----7-7-7-7----7-7-7-7---7-----------------------------------:| 
|--------------------------------------------------------------| 
|--------------------------------------------------------------| 
| . . . . . . . . . . . . . . . . . . . . . . . . . | 
| | 
|--------------------------------------------------------------| 
|--------------------------------------------------------------| 
|-------------------------------------------------------------:| 
|-------------------------------------------------------------:| 
|--5----------3---------2-----3-3-3-3-2-2-2-2-0-0-0-0-2-2-2-2--| 
|----1-1-1-1----1-1-1-1---1------------------------------------| 
. . . . . . . . . . . . . . . . . . . . . . . . . 




Riff B (Riff C is the Rhythm that gets played underneath Riff B) 
|-----------------------------------------------------------------------| 
|-------------------------8~----8-8---p--------------/10-8-------h------| 
|---p---------------h---7-----------10-9-7-----------------10-9-9-10-9~-| 
|-10-9-7-----------9-10--------------------7~----7-7--------------------| 
|--------7~----7-7------------------------------------------------------| 
|-----------------------------------------------------------------------| 
| | 
|-----------------------------------------------------------------------| 
|-------------------------8~----8-8---p--------------------------h------| 
|---p---------------h---7-----------10-9-7------------10-9--7-5-5-7--5~-| 
|-10-9-7-----------9-10--------------------7~----7-7--------------------| 
|--------7~----7-7------------------------------------------------------| 
|-----------------------------------------------------------------------| 



|-----------------------------------------------------------------------| 
|-------------------------8~----8-8---p---------------10-8-------h------| 
|---p---------------h---7-----------10-9-7-----------------10-9---10-9~-| 
|-10-9-7-----------9-10--------------------7~----7-7--------------------| 
|--------7~----7-7------------------------------------------------------| 
|-----------------------------------------------------------------------| 
| | 
|-----------------------------------------------------------------------| 
|-------------------------8~----8-8---p--------------------------h------| 
|---p---------------h---7-----------10-9-7------------10-9--7-5-5-7--5~-| 
|-10-9-7-----------9-10--------------------7~----7-7--------------------| 
|--------7~----7-7------------------------------------------------------| 
|-----------------------------------------------------------------------| 



Riff C 
|------------------------------------------------| 
|-----------------------(3)------(3)-----(3)-----| 
|-2--------2-------2-----5--------5-------5------| 
|-2--------2-------2-----5--------5-------5------| 
|-0---0-0--0--0-0--0-0-0-3---3-3--3--3-3--3-3-3--| 
|------------------------------------------------| 
. . . . . . . . . . . . 


|------------------------------------------------| 
|(5)------(5)-----(5)--------1-----------1-------| 
|-7--------7-------7-----------------------------| 
|-7--------7-------7------------3-----------3----| 
|-5---5-5--5--5-5--5-5-5--1--------0--1----------| 
|------------------------------------------------| 
. . . . . . |*****let ring****| 







Riff D.1 
|---------------------------------------------------------------------| 
|-------------h-h--p-p---------------------8-----h--p-p---------8~----| 
|-9---7~--7--7-9-10-9-7----------7-9----10---10-9-10-9-7------9-------| 
|-----------------------10~-\/10-----10------------------10-7---------| 
|---------------------------------------------------------------------| 
|---------------------------------------------------------------------| 
| | 
|---------------------------------------------------------------------| 
|-------------h-h--p-p---------------------8-----h--p-p---------------| 
|-5---4~--4--4-5--7-5-4----------7-9----10---10-9-10-9-7------9-7~----| 
|------------------------7~---10-----10------------------10-7---------| 
|---------------------------------------------------------------------| 
|---------------------------------------------------------------------| 
| | 
|---------------------------------------------------------------------| 
|---------------------------------------------------------------------| 
|-2----------------------2---------2----------------------------------| 
|-2---5-----------3------2---------2-------5--------------3-----5-----| 
|-0---5-----------3------0---------0-------5--------------3-----5-----| 
|-----3-----------1------------------------3--------------1-----3-----|



In Flames albums
2004 Soundtrack to Your Escape
2002 Reroute to Remain
2000 Clayman
1999 Colony
1997 Black-Ash Inheritance
1997 Whoracle
1995 Jester Race
1994 Subterranean
1994 Lunar Strain
Jester Race tabs
01Moonshield tabbass tab
02The Jester's Dance tabbass tab
03Artifacts of the Black Rain tabbass tab
04Graveland tabbass tab
05Lord Hypnos tabbass tab
06Dead Eternity tabbass tab
07The Jester Race tabbass tab
08December Flower tabbass tab
09Wayfaerer tabbass tab
10Dead God in Me tabbass tab

 

1