Search tabs:
Browse artists: 0-9 | A | B | C | D | E | F | G | H | I | J | K | L | M | N | O | P | Q | R | S | T | U | V | W | X | Y | Z
/ In Flames / Jester Race (1995) / Graveland guitar tab

C Tuning


Riff A (Both Gtrs)
|-----------------------------------------------------|
|-----------------------------------------------------|
|-----------------------------------------------------|
|---2------h----------5p4-4-------2-2-2-4-4-4-5-5-5---|
|---------3-5-2-3-----------2-------------------------|
|-----0-0---------0-0---------0-0---------------------|
      . .         . .         . .

|-----------------------------------------------------|
|-----------------------------------------------------|
|-----------------------------------------------------|
|---2------h----------5p4-4-------2-2-2-4-4-4-5-------|
|---------3-5-2-3-----------2-------------------------|
|-----0-0---------0-0---------0-0---------------------|
      . .         . .         . .


|-----------------------------------------------------|
|-----------------------------------------------------|
|----------h------------------------------------------| GTR I
|---5-----2-4-0-2-----2-------------------------------|
|--------------------(2)----2-2-2-2-2-2-5-5-5-5-5-5---|
|-----0-0---------0-0---0-0---------------------------|
|     . .         . .   . .                           |
|                                                     |
|-----------------------------------------------------|
|-----------------------------------------------------|
|-----------------------------------------------------| GTR II
|---2------h----------5p4-4-------2-2-2-4-4-4-5-5-5---|
|---------3-5-2-3-----------2-------------------------|
|-----0-0---------0-0---------0-0---------------------|
      . .         . .         . .


Riff B
|-----------------------------------------------------|
|-----------------------------------------------------|
|----------h------------------------------------------| GTR I
|---5-----2-4-0-2-----2-------------------------------|
|---------------------------2-2-2-2-2-2-5-5-5-5-5-5---|
|-----0-0---------0-0---0-0---------------------------|
|     . .         . .   . .                           |
|                                                     |
|-----------------------------------------------------|
|-----------------------------------------------------|
|-----------------------------------------------------| GTR II
|---2------h----------5p4-4-------2-2-2-4-4-4-5-5-5---|
|---------3-5-2-3-----------2-------------------------|
|-----0-0---------0-0---------0-0---------------------|
      . .         . .         . .


Riff C.1
|-----------------------------------------------------|
|-----------------------------------------------------|
|--------------4-----4---5----------------------------| GTR I
|--5-----5-----------------7-----4--------------------|
|--------------------------------------2-2-2-2-2-2-/--|
|----0-0---0-0---0-0---0-----0-0---0-0----------------|
|    . .   . .   . .   .     . .   . .                |
|                                                     |
|-----------------------------------------------------|
|---------------------------------------------h-------|
|--------------------------------------------4-2------| GTR II
|--------------5-----5---7-4---------------4-----5----|
|--7-----7-----------------------6-----2-5------------|
|----0-0---0-0---0-0---0-----0-0---0-0----------------|
     . .   . .   . .   .     . .   . . .spm


Riff C.2
|-----------------------------------------------------|
|-----------------------------------------------------|
|--------------4-----4---5----------------------------| GTR I
|--5-----5-----------------7-----4--------------------|
|--------------------------------------2--------------|
|----0-0---0-0---0-0---0-----0-0---0-0----------------|
|    . .   . .   . .   .     . .   . .                |
|                                                     |
|-----------------------------------------------------|
|---------------------------------------------h-------|
|--------------------------------------------4-2------| GTR II
|--------------5-----5---7-4---------------4-----5----|
|--7-----7-----------------------6-----2-5------------|
|----0-0---0-0---0-0---0-----0-0---0-0----------------|
     . .   . .   . .   .     . .   . . .spm

Play Riff B 2x
Play Riff C.1

Riff C.3
|-----------------------------------------------------|
|-----------------------------------------------------|
|--------------4-----4---5----------------------------| GTR I
|--5-----5-----------------7-----4--------------------|
|--------------------------------------2-2-2-2-2-2----|
|----0-0---0-0---0-0---0-----0-0---0-0----------------|
|    . .   . .   . .   .     . .   . .                |
|                                                     |
|-----------------------------------------------------|
|---------------------------------------------h-------|
|--------------------------------------------4-2------| GTR II
|--------------5-----5---7-4---------------4-----5----|
|--7-----7-----------------------6-----2-5------------|
|----0-0---0-0---0-0---0-----0-0---0-0----------------|
     . .   . .   . .   .     . .   . . .spm


|-------------------------------------------|
|-------------------------------p-h------3--|
|------------------------------2-0-2-4~-----| GTR I
|--5~-----4---5~----4---5~------------------|
|-------------------------------------------|
|-------------------------------------------|
|                                           |
|-------------------------------------------|
|-------------------------------------------|
|---------2---4-----------------p-h---------| GTR II
|--2~----(4)--2---------2~-----4-2-4-5~-----|
|---------5---2-----------------------------|
|-------------0-----------------------------|
|                                           |
|-------------------------------------------|
|-------------------------------------------|
|-5-----7-----9---------5----7---99---99----| GTR III
|-5-----7-----9---------5----7---99---99----|
|-3-----5-----7---------3----5---7777777777-|
|-------------------------------------------|
                                   ...  ...

Riff D.2
|-------------------------------------------|
|-------------------------------p-h---------|
|------------------------------2-0-2-4~--2--| GTR I
|--5~-----4---5~----4---5~------------------|
|-------------------------------------------|
|-------------------------------------------|
|                                           |
|-------------------------------------------|
|-------------------------------------------|
|-------------4-----------------p-h---------| GTR II
|--2~-----0---2---------2~-----4-2-4-5~-----|
|-------------2-----------------------------|
|-------------0-----------------------------|
|                                           |
|-------------------------------------------|
|-------------------------------------------|
|-5-----7-----9---------5----7---99---99----| GTR III
|-5-----7-----9---------5----7---99---99----|
|-3-----5-----7---------3----5---7777777777-|
|-------------------------------------------|
                                   ...  ...

Riff D.1
|-------------------------------------------|
|-------------------------------p-h------3--|
|------------------------------2-0-2-4~-----| GTR I
|--5~-----4---5~----4---5~------------------|
|-------------------------------------------|
|-------------------------------------------|
|                                           |
|-------------------------------------------|
|-------------------------------------------|
|-------------4-----------------p-h---------| GTR II
|--2~-----0---2---------2~-----4-2-4-5~-----|
|-------------2-----------------------------|
|-------------0-----------------------------|
|                                           |
|-------------------------------------------|
|-------------------------------------------|
|-5-----7-----9---------5----7---99---99----| GTR III
|-5-----7-----9---------5----7---99---99----|
|-3-----5-----7---------3----5---7777777777-|
|-------------------------------------------|
                                   ...  ...


Riff D.3
|---------------------------------------------------|
|------------------------p-h------------------------|
|-----------------------2-0-2-4-4-------4-4---------| GTR I
|--5~-----4---5~-4--5~------------------------------|
|---------------------------------------------------|
|---------------------------------0-0-0-----0-0-0---|
|                                 . . .     . . .   |
|                                                   |
|---------------------------------------------------|
|---------------------------------------------------|
|-------------4----------p-h------------------------| GTR II
|--2~-----0---2-----2~--4-2-4-5-5-------5-5---------|
|-------------2-------------------------------------|
|-------------0-------------------0-0-0-----0-0-0---|
|                                 . . .     . . .   |
|                                                   |
|---------------------------------------------------|
|---------------------------------------------------|
|-5-----7-----9-----5-----7---9-9-------9-9---------| GTR III
|-5-----7-----9-----5-----7---9-9-------9-9---------|
|-3-----5-----7-----3-----5---7-7-7-7-7-7-7-7-7-7---|
|---------------------------------------------------|
                                  . . .     . . .

Play Riff B 2x
Play Riff C.1
Play Riff C.2
Play Riff C.1
Play Riff C.3

|-------------------------------------------|
|-------------------------------p-h------3--|
|------------------------------2-0-2-4~-----| GTR I
|--5~-----4---5~----4---5~------------------|
|-------------------------------------------|
|-------------------------------------------|
|                                           |
|-------------------------------------------|
|-------------------------------------------|
|---------2---4-----------------p-h---------| GTR II
|--2~-----0---2---------2~-----4-2-4-5~-----|
|-------------2-----------------------------|
|-------------0-----------------------------|
|                                           |
|-------------------------------------------|
|-------------------------------------------|
|-5-----7-----9---------5----7---99---99----| GTR III
|-5-----7-----9---------5----7---99---99----|
|-3-----5-----7---------3----5---7777777777-|
|-------------------------------------------|
                                   ...  ...

|-------------------------------------------|
|-------------------------------p-h------3--|
|------------------------------2-0-2-4~-----| GTR I
|--5~-----4---5~----4---5~------------------|
|-------------------------------------------|
|-------------------------------------------|
|                                           |
|-------------------------------------------|
|-------------------------------------------|
|-------0h22--4-----------------p-h---------| GT II
|--2~---------2---------2~-----4-2-4-5~-----|
|-------------2-----------------------------|
|-------------0-----------------------------|
|                                           |
|-------------------------------------------|
|-------------------------------------------|
|-5-----7-----9---------5----7---99---99----| GTR III
|-5-----7-----9---------5----7---99---99----|
|-3-----5-----7---------3----5---7777777777-|
|-------------------------------------------|
                                   ...  ...

|-------------------------------------------|
|-------------------------------p-h------3--|
|------------------------------2-0-2-4~-----| GTR I
|--5~-----4---5~----4---5~------------------|
|-------------------------------------------|
|-------------------------------------------|
|                                           |
|-------------------------------------------|
|-------------------------------------------|
|---------2---4-----------------p-h---------| GTR II
|--2~-----0---2---------2~-----4-2-4-5~-----|
|-------------2-----------------------------|
|-------------0-----------------------------|
|                                           |
|-------------------------------------------|
|-------------------------------------------|
|-5-----7-----9---------5----7---99---99----| GTR III
|-5-----7-----9---------5----7---99---99----|
|-3-----5-----7---------3----5---7777777777-|
|-------------------------------------------|
                                   ...  ...

Play Riff D.1
Play Riff D.3

Riff E.1
|---------------------------------------|
|---------------------------------------|
|---------------------------------------|  GTR I
|-------------------9-9-----------7-7---|
|-----7-7-10-10-7-7-----10-10-8-8-------|
|-0-------------------------------------|
|                                       |
|---------------------------------------|
|---------------------------------------|
|---------------------------------------| GTR II
|-2---------------------------3---------|
|-2---------------------------3---------|
|-0---------------------------1---------|


|---------------------------------------|
|---------------------------------------|
|---------------------------------------| GTR I
|-------------------9-9-10-10-7-7-7-7---|
|-----7-7-10-10-7-7---------------------|
|-0-------------------------------------|
|                                       |
|---------------------------------------|
|---------------------------------------|
|-----------------------------7---------| GTR II
|-2----------------5----------7---------|
|-2----------------5----------5---------|
|-0----------------3--------------------|


|---------------------------------------|
|---------------------------------------|
|---------------------------------------| GTR I
|-------------------9-9-----------7-7---|
|-----7-7-10-10-7-7-----10-10-8-8-------|
|-0-------------------------------------|
|                                       |
|---------------------------------------|
|---------------------------------------|
|---------------------------------------| GTR II
|-2---------------------------3-3-------|
|-2---------------------------3-3-------|
|-0---------------------------1-1-------|



|---------------------------------------|
|---------------------------------------|
|---------------------------------------|
|-------------------9-9-10-10-7~--------| GTR I
|-----7-7-10-10-7-7---------------------|
|-0-------------------------------------|
|                                       |
|---------------------------------------|
|---------------------------------------|
|-----------------------------7---------| GTR II
|-2----------------5----------7---------|
|-2----------------5----------5---------|
|-0----------------3--------------------|


Riff E.2
|---------------------------------------|
|---------------------------------------|
|---------------------------------------| GTR I
|-------------------9-9-----------7-7---|
|-----7-7-10-10-7-7-----10-10-8-8-------|
|-0-------------------------------------|
|                                       |
|---------------------------------------|
|---------------------------------------|
|----------4--4-----7-7--4--4-5-5-5-5---| GTR II
|-----5-5-------5-5---------------------|
|---------------------------------------|
|-0-0-----------------------------------|


|---------------------------------------|
|---------------------------------------|
|---------------------------------------| GTR I
|-------------------9-9-10-10-7-7-7-7---|
|-----7-7-10-10-7-7---------------------|
|-0-------------------------------------|
|                                       |
|---------------------------------------|
|---------------------------------------|
|----------4--4-------------------------| GTR II
|-----5-5-------5-5---------------------|
|-----------------------------5-5-5-5---|
|-0-0---------------3-3--3--3-----------|


|---------------------------------------|
|---------------------------------------|
|---------------------------------------| GTR I
|-------------------9-9-----------7-7---|
|-----7-7-10-10-7-7-----10-10-8-8-------|
|-0-------------------------------------|
|                                       |
|---------------------------------------|
|---------------------------------------|
|----------4--4-----7-7--4--4-5-5-5-5---| GTR II
|-----5-5-------5-5---------------------|
|---------------------------------------|
|-0-0-----------------------------------|



|---------------------------------------|
|---------------------------------------|
|---------------------------------------| GTR I
|-------------------9-9-10-10-7~--------|
|-----7-7-10-10-7-7---------------------|
|-0-------------------------------------|
|                                       |
|---------------------------------------|
|---------------------------------------|
|----------4--4-------------------------| GTR II
|-----5-5-------5-5---------------------|
|-----------------------------5-5-5-5---|
|-0-0---------------3-3--3--3-----------|


Play Riff E.2 Again
Play Riff D.2
Play Riff D.3
Play Riff B 2x
Play Riff C.1
Play Riff C.2

Riff F
|--------|
|--------|
|--------| GTR I
|-2------|
|-2------|
|-0------|
|        |
|--------|
|--------|
|--------| GTR II
|-9\\-----|
|-7\\-----|
|-0\\-----|


In Flames albums
2004 Soundtrack to Your Escape
2002 Reroute to Remain
2000 Clayman
1999 Colony
1997 Black-Ash Inheritance
1997 Whoracle
1995 Jester Race
1994 Subterranean
1994 Lunar Strain
Jester Race tabs
01Moonshield tabbass tab
02The Jester's Dance tabbass tab
03Artifacts of the Black Rain tabbass tab
04Graveland tabbass tab
05Lord Hypnos tabbass tab
06Dead Eternity tabbass tab
07The Jester Race tabbass tab
08December Flower tabbass tab
09Wayfaerer tabbass tab
10Dead God in Me tabbass tab

 

1