Search tabs:
Browse artists: 0-9 | A | B | C | D | E | F | G | H | I | J | K | L | M | N | O | P | Q | R | S | T | U | V | W | X | Y | Z
/ In Flames / Jester Race (1995) / Moonshield guitar tab

MOONSHIELD
  by In Flames from the album "The Jester Race"
transcribed by Zack Demianczyk


standard tuning

guitar 1                          play 4 times
|-----------------------------------------------------------------------------------------|
|-----------------------------------------------------------------------------------------|
|-1------1-------1-------1---3---1-------0-------0-------0--------------------------------|
|----3------3------3-------------------------1-------1-------1-----1---3---5--------------|
|-----------------------------------------------------------------------------------------|
|-----------------------------------------------------------------------------------------|

guitar 2                         play 4 times
|-----------------------------------------------------------------------------------------|
|-----------------------------------------------------------------------------------------|
|-1-------1------1------1---3---1-------0-------0--------0--------------------------------|
|--------------------------------------------------------------------------1---3---5------|
|-------------------------------------------3-------3--------3----------------------------|
|-1-------1------1------1-----------------------------------------------------------------|

guitar 1                         play 4 times
|-----------------------------------------------------------------------------------------|
|-----------------------------------------------------------------------------------------|
|-5------5-------5------5---6---5-----------3-------3--------3----------------------------|
|-----3-------3------3--------------------------1--------1-------1------1---3---5---------|
|-----------------------------------------------------------------------------------------|
|-----------------------------------------------------------------------------------------|

guitar 2                        play 4 times
|--------------------------------------------------------------------------------------|
|-1------1-------1------1---2---1------------------------------------------------------|
|-------------------------------------------3-------3-------3--------------------------|
|----3------3-------3------3-----------------------------------------------1---3---5---|
|-------------------------------------------6-------6-------6--------------------------|
|-1-------1-------1-----1--------------------------------------------------------------|


guitars 1&2                   play 2 times
|-----------------------------------------------------------------------------------------|
|-----------------------------------------------------------------------------------------|
|-----------------------------------------------------------------------------------------|
|--6----6--5---3-----------------6-/-8--6------------3--5---6----6--5---3-----------------|
|---------------------3---3--4------------------3-----------------------------------------|
|-----------------------------------------------------------------------------------------|

|----------------------------------------------------------------------------------------|
|----------------------------------------------------------------------------------------|
|----------------------------------------------------------------------------------------|
|-------------8--6--4--------------------------------------------------------------------|
|--3--3-----------------8--6-----6h8--8--------------------------------------------------|
|---------------------------------8------------------------------------------------------|

guitar 1
|--------------------------------------------------------------------------------|
|--------------------------------------------------------------------------------|
|----------------------------------------------0---------------------------------|
|----------------------------------------1---------------8-----------------------|
|-3----------3-------------------3-----------------/6---------6------------------|
|-1--1h4h1---1--1h4h1------------------------------------------------------------|

guitar 2
|-----------------------------------------------------------------------------------|
|-----------------------------------------------------------------------------------|
|-----------------------------------------------------------------------------------|
|-3--------------3--------------5---------------6--5--3---------------3-------------|
|-----3p1h3------3p1h3--------3--1--3--------------6--5-3------ -----3p1h3----------|
|-----------------------------------------------------------------------------------|


|----------------------------------------------------------------------------------|
|----------------------------------------------------------------------------------|
|--------------------------------------------------8-------------------------------|
|-3--------------5----------------5h6---/8-------8----6----------------------------|
|-----3p1h3----------3--1--3-------------------------------------------------------|
|----------------------------------------------------------------------------------|

guitar 1
|-------------------------------------------------------------|
|-------------------------------------------------------------|
|--------------------------------------------------0----------|
|--------------------------1----------------------------8-----|
|-3----------3-------------3-----------------/6---------6-----|
|-1--1h4h1---1--1h4h1-----------------------------------------|

guitars 1&2
|-----------------------------------------------------------------------|
|-----------------------------------------------------------------------|
|-----------------------------------------------------------------------|
|--6----6--5---3-----------------6-/-8--6--------3--5---6----6--5---3---|
|---------------------3---3--4-------------------3----------------------|
|-----------------------------------------------------------------------|

|------------------------------------------------------|
|------------------------------------------------------|
|------------------------------------------------------|
|-------------8--6--4----------------------------------|
|--3--3-----------------8--6----------6h8--8-----------|
|---------------------------------8--------------------|

guitar 2
|------------------------------------------------------|
|------------------------------------------------------|
|------------------------------------------------------|
|------------------------------------------------------|
|-------6h8--6h8--6h8---8~------------------6h8--6h8---|
|--8-----------------------------------8---------------|

 guitar 2   under solo/interlude
|------------------------------------------------------|
|------------------------------------------------------|
|------------------------------------------------------|
|--8----10----11---------8----10-----11-----13---------|
|--8----10----11---------8----10-----11-----13---------|
|--6-----8-----9---------6-----8------9-----11---------|

guitars 1&2
|---------------------------------------------------------------------------------|
|---------------------------------------------------------------------------------|
|---------------------------------------------------------------------------------|
|----------6----------8-----------9-------6--6---X--X---8--8---X---9--------------|
|------6----------8-----------9-----------6--6---X--X---8--8---X---9--------------|
|--4----------6-----------7---------------4--4---X--X---6--6---X---7--------------|


guitar 1(Need help can't figure out these chords under this part)
|---------------------------1-----------------------------------------------------|
|--1--1-------1-1---2-------1-----------------------------------------1--1--------|
|---------3-------------------------3--3--1---1--3--5-----1--3---------------3----|
|---------------------------------------------------------------------------------|
|---------------------------------------------------------------------------------|
|---------------------------------------------------------------------------------|

|--------------1-----------------------------------|
|-1-1---2------1-----------------------------------|
|----------------------5--3--1--3----1h3p1--1~-----|
|--------------------------------------------------|
|--------------------------------------------------|
|--------------------------------------------------|

guitars 1&2
|---------------------------------------------------------------------------------|
|---------------------------------------------------------------------------------|
|---------------------------------------------------------------------------------|
|----------6-----------8-----------9-------6--6---X--X---8--8---X---9-------------|
|------6-----------8-----------9-----------6--6---X--X---8--8---X---9-------------|
|--4-----------6-----------7---------------4--4---X--X---6--6---X---7-------------|


|-----------------------------------------------------------------------------------------|
|-----------------------------------------------------------------------------------------|
|-----------------------------------------------------------------------------------------|
|---------6-----------8-----------9------------11-----------11--------6-------------------|
|-----6-----------8-----------9-----------11------------11------------4-----6----4----6---|
|-4-----------6-----------7-----------9-------------9-----------------------4----2----4---|

end riff
|---------------------------------------------------------------------------------|
|---------------------------------------------------------------------------------|
|---------------------------------------------------------------------------------|
|---------------------------------------------------------------------------------|
|-------6h8--6h8--6h8---8~-8~--------------------6h8--6h8--6h8--8 ~-8~------------|
|--8----------------------------------------8-------------------------------------|

|---------------------|
|---------------------|
|---------------------|
|---------------------|
|------6h8--6h8--6h8--|
|--8------------------|

well that's about all i can figure out
later
ZACK DEMIANCZYK


In Flames albums
2004 Soundtrack to Your Escape
2002 Reroute to Remain
2000 Clayman
1999 Colony
1997 Black-Ash Inheritance
1997 Whoracle
1995 Jester Race
1994 Subterranean
1994 Lunar Strain
Jester Race tabs
01Moonshield tabbass tab
02The Jester's Dance tabbass tab
03Artifacts of the Black Rain tabbass tab
04Graveland tabbass tab
05Lord Hypnos tabbass tab
06Dead Eternity tabbass tab
07The Jester Race tabbass tab
08December Flower tabbass tab
09Wayfaerer tabbass tab
10Dead God in Me tabbass tab

 

1