Search tabs:
Browse artists: 0-9 | A | B | C | D | E | F | G | H | I | J | K | L | M | N | O | P | Q | R | S | T | U | V | W | X | Y | Z
/ In Flames / Jester Race (1995) / Wayfaerer guitar tab

WAYFAERER
                            As recorded by In Flames

Music by In Flames
Arranged by Brad Choquette
Transcribed by Brad Choquette

Gtr I (C F A# D# G C) - 'Untitled'
Gtr II (C F A# D# G C) - 'Untitled'
Gtr III (E A D G B E) - 'Untitled'

    Moderately Q=150
    A                       G
   5/4
    Gtr I
    E E E E E E E E  E  E   E E E E E E E E E E
||------------------------|---------------------|
||o-----------------------|---------------------|
||------------------------|---------------------|
||----2---0-2---2----0--2-|---2---0-2---2---0-2-|
||o-0---0-----0---0-------|---------------------|
||------------------------|-3---3-----3---3-----|
|
|   Gtr II
|   W               +Q      W
||------------------------|---------------------|
||o-5---------------(5)---|---------------------|
||--5---------------(5)---|---------------------|
||------------------------|---------------------|
||o-----------------------|---------------------|
||------------------------|---------------------|


  F                     E
                       6/4
                                     |-3-|
  E E E E E E E E E E   E  E E E E E S S S E E E E E
|---------------------|---------------------------------|
|---------------------|---------------------------------|
|---------------------|---------------------------------|
|---3---2-3---3---2-3-|----2---0-2-2-0h2p0---0----------|
|---------------------|--------------------3---3-2-0----|
|-1---1-----1---1-----|-0----0--------------------------|
|
| W                     W.
|---------------------|---------------------------------|
|---------------------|---------------------------------|
|---------------------|---------------------------------|
|---------------------|---------------------------------|
|---------------------|---------------------------------|
|---------------------|---------------------------------|


  A                     G
 5/4
  E E E E E E E E E E   E E E E E E E E E E
|---------------------|---------------------|
|---------------------|---------------------|
|---------------------|---------------------|
|---2---0-2---2---0-2-|---2---0-2---2---0-2-|
|-0---0-----0---0-----|---------------------|
|---------------------|-3---3-----3---3-----|
|
| E E E E E E E E E E   E E E E E E E E E E
|---------------------|---------------------|
|---------------------|---------------------|
|---5---4-5---5---4-5-|---5---4-5---5---4-5-|
|---------------------|---------------------|
|-0---0-----0---0-----|---------------------|
|---------------------|-3---3-----3---3-----|


  F                     E
                       6/4
                                    |-3-|
  E E E E E E E E E E   E E E E E E S S S E E E E E
|---------------------|-----------------------------|
|---------------------|-----------------------------|
|---------------------|-----------------------------|
|---3---2-3---3---2-3-|---2---0-2-2-0h2p0---0-------|
|---------------------|-------------------3---3-2-0-|
|-1---1-----1---1-----|-0---0-----------------------|
|
|                                   |-3-|
| E E E E E E E E E E   E E E E E E S S S E E E E E
|---------------------|-----------------------------|
|---------------------|-----------------------------|
|---2---0-2---2---0-2-|-----------------------------|
|---------------------|---2---0-2-2-0h2p0---0-------|
|---------------------|-------------------3---3-2-0-|
|-1---1-----1---1-----|-0---0-----------------------|


    F     G     A             F     G     A
   6/4                       11/8
    Gtrs I, II
    E E E E E E E E E E E E   E E E E E E E E E E E
||--------------------------|------------------------||
||o-------------------------|-----------------------o||
||--------------------------|------------------------||
||------5-----3-----2-----2-|-----5-----3-----2------||
||o---3-----3-----3-----3---|---3-----3-----3-----3-o||
||--1-----3-----5-----5-----|-1-----3-----5-----5----||


  N.C.
 6/4                       13/8                    3/8
  Gtr I
                 |-3-|
  Q.   Q.   Q.   S S S Q    Q  Q  Q.    Q  E Q.     E E E
|-------------------------|-----------------------|--------|
|-------------------------|-----------------------|--------|
|-9----7----9----7h9p7-5--|-5--7--9----10--7-9----|-9-7-5--|
|-------------------------|-----------------------|--------|
|-------------------------|-----------------------|--------|
|-------------------------|-----------------------|--------|
|
| Gtr II
|                |-3-|
| Q.   Q.   Q.   S S S Q    Q  Q  Q.    Q  E Q.     E E E
|-------------------------|-----------------------|--------|
|-------------------------|-----------------------|-8-6-5--|
|-5----4----5----4h5p4-2--|-2--4--5-----7--4-5----|--------|
|-------------------------|-----------------------|--------|
|-------------------------|-----------------------|--------|
|-------------------------|-----------------------|--------|


                                                            H=H
                                                  E5 F5
 6/4                   4/4             3/8       4/4
  Q.   Q.   Q  E Q  E   Q.    Q  E Q    E E E     Q  E Q.   Q
|---------------------|---------------|--------||--------------|
|---------------------|---------------|-------o||--------------|
|-9----7----9--7-5--7-|-9----10--7-9--|-9-7-5--||--------------|
|---------------------|---------------|--------||--------------|
|---------------------|---------------|-------o||-2--3---------|
|---------------------|---------------|--------||-0--1---------|
|
| Q.   Q.   Q  E Q  E   Q.    Q  E Q    E E E     Q  E Q.   Q
|---------------------|---------------|--------||--------------|
|---------------------|---------------|-8-6-5-o||--------------|
|-5----4----5--4-2--4-|-5-----7--4-5--|--------||--------------|
|---------------------|---------------|--------||--------------|
|---------------------|---------------|-------o||-2--3---------|
|---------------------|---------------|--------||-0--1---------|


  Faster Q=220
  $
  $$
  A5               C5     A
 6/4
  Gtrs I, II
  Q  E E E E E E E Q.     Q  E E E E E E E E E E
|-----------------------|------------------------|
|-----------------------|------------------------|
|-----------------------|------------------------|
|------------------5----|------------------------|
|-7----7-----8-----3----|------7-----8-7-5-7-5---|
|-5--5---5-5---5-5------|-5--5---5-5-----------8-|


                   C5     A
  Q  E E E E E E E Q.     Q  E E E E E E E E Q
|-----------------------|------------------------|
|-----------------------|------------------------|
|-----------------------|------------------------|
|------------------5----|------------------------|
|------7-----8-----3----|------7-----8-7-5-7-----|
|-5--5---5-5---5-5------|-5--5---5-5-------------|


                   C5     A
  Q  E E E E E E E Q.     Q  E E E E E E E E E E
|-----------------------|------------------------|
|-----------------------|------------------------|
|-----------------------|------------------------|
|------------------5----|------------------------|
|------7-----8-----3----|------7-----8-7-5-7-5---|
|-5--5---5-5---5-5------|-5--5---5-5-----------8-|


                                                  To Coda
                                                  To Coda
                   C5     A
                         9/4
  Q  E E E E E E E Q.     Q  E E E E E E E E E E E E E E Q
|-----------------------|-----------------------------------|
|-----------------------|-----------------------------------|
|-----------------------|-----------------------------------|
|------------------5----|-----------------------------------|
|------7-----8-----3----|------7-----8-7-5-7-5---5----------|
|-5--5---5-5---5-5------|-5--5---5-5-----------8---8-7-5----|


  F#                                                              D5         A5
 6/4
  Gtrs I, II
   Q       E  E   E  E   Q     E  E   E  E    Q       E  E   E  E   Q.       Q.
|------------------------------------------|------------------------------------------|
|------------------------------------------|------------------------------------------|
|------------------------------------------|------------------------------------------|
|------------------------------------------|------------------------7-----------------|
|------------------------------------------|------------------------5--------7--------|
|--2-------2--2---2--2---2-----2--2---2--2-|--2-------2--2---2--2------------5--------|
|
| Gtr III
|  Q      +Q     +Q     +Q    +Q     +Q       Q      +Q     +Q     +Q    +Q      +Q
|-15b17--(15)---(15)---(15)--(15)---(15)---|-15b17--(15)---(15)---(15)--(15)----(15)--|
|------------------------------------------|------------------------------------------|
|------------------------------------------|------------------------------------------|
|------------------------------------------|------------------------------------------|
|------------------------------------------|------------------------------------------|
|------------------------------------------|------------------------------------------|


  F#                                                 E5   A5
   Q     E E  E  E  Q     E E  E  E    Q     E E E E Q.   Q.
|-----------------------------------|---------------------------|
|-----------------------------------|---------------------------|
|-----------------------------------|---------------------------|
|-----------------------------------|---------------------2-----|
|-----------------------------------|----------------2----0-----|
|--2-----2-2--2--2--2-----2-2--2--2-|--2-----2-2-2-2-0----------|
|
|  H          E  E  H          E  E    W.
|-20b22------20----22b24------20----|-23b25---------------------|
|---------------22---------------22-|---------------------------|
|-----------------------------------|---------------------------|
|-----------------------------------|---------------------------|
|-----------------------------------|---------------------------|
|-----------------------------------|---------------------------|


  F#
   Q        E    E     E    E     Q        E    E     E    E
|---------------------------------------------------------------|
|---------------------------------------------------------------|
|---------------------------------------------------------------|
|---------------------------------------------------------------|
|---------------------------------------------------------------|
|--2--------2----2-----2----2-----2--------2----2-----2----2----|
|
|  |--3--|  |---3---|  |---3---|  |--3--|  |---3---|  |---3---|
|  E  E  E  E  E    E  E  E    E  E  E  E  E  E    E  E  E    E
|---------------------------------------------------------------|
|-22-20----20---------------------------------------------------|
|-------22----22---21-22-21---19-21-19-17-19-17---15-17-15---14-|
|---------------------------------------------------------------|
|---------------------------------------------------------------|
|---------------------------------------------------------------|


                                    D5     A5
   Q        E    E     E    E         Q.   Q.
|------------------------------------------------|
|------------------------------------------------|
|------------------------------------------------|
|-------------------------------------7----------|
|-------------------------------------5----7-----|
|--2--------2----2-----2----2--------------5-----|
|
|  |--3--|  |---3---|  |---3---|
|  E  E  E  E  E    E  E  E    E     +H.
|------------------------------------------------|
|------------------------------------------------|
|-15-14-12-14-12---10-12-10---12b14-(12)---------|
|------------------------------------------------|
|------------------------------------------------|
|------------------------------------------------|


  F#                                         E5   A5
  Q     E E E  E Q     E E E E   Q   E E E E Q.   Q.
|------------------------------|------------------------|
|------------------------------|------------------------|
|------------------------------|------------------------|
|------------------------------|------------------2-----|
|------------------------------|-------------2----0-----|
|-2-----2-2-2--2-2-----2-2-2-2-|-2---2-2-2-2-0----------|
|
| H         E  E H         E E   E E E E E E Q.   Q.
|-8b10------8----------------5-|-3-1-0-1-0--------------|
|-------------10-8b10------8---|-----------3-1----4b6---|
|------------------------------|------------------------|
|------------------------------|------------------------|
|------------------------------|------------------------|
|------------------------------|------------------------|


  A5                C5     A
  Q   E E E E E E E Q.     Q   E E E E E E E E E E
|------------------------|-------------------------|
|------------------------|-------------------------|
|------------------------|-------------------------|
|-------------------5----|-------------------------|
|-7-----7-----8-----3----|-------7-----8-7-5-7-5---|
|-5---5---5-5---5-5------|-5---5---5-5-----------8-|
|
| W.                       W.
|------------------------|-------------------------|
|-1----------------------|-------------------------|
|------------------------|-------------------------|
|------------------------|-------------------------|
|------------------------|-------------------------|
|------------------------|-------------------------|


                    C5     A
  Q   E E E E E E E Q.     Q   E E E E E E E E Q
|------------------------|--------------------------|
|------------------------|--------------------------|
|------------------------|--------------------------|
|-------------------5----|--------------------------|
|-------7-----8-----3----|-------7-----8-7-5-7------|
|-5---5---5-5---5-5------|-5---5---5-5--------------|
|
| W.                       W.
|------------------------|--------------------------|
|------------------------|--------------------------|
|------------------------|--------------------------|
|------------------------|--------------------------|
|------------------------|--------------------------|
|------------------------|--------------------------|


                   C5     A
  Q  E E E E E E E Q.     Q  E E E E E E E E E E
|-----------------------|------------------------|
|-----------------------|------------------------|
|-----------------------|------------------------|
|------------------5----|------------------------|
|------7-----8-----3----|------7-----8-7-5-7-5---|
|-5--5---5-5---5-5------|-5--5---5-5-----------8-|


                   C5     A
                         9/4
  Q  E E E E E E E Q.     Q  E E E E E E E E E E E E E E Q
|-----------------------|-----------------------------------|
|-----------------------|-----------------------------------|
|-----------------------|-----------------------------------|
|------------------5----|-----------------------------------|
|------7-----8-----3----|------7-----8-7-5-7-5---5----------|
|-5--5---5-5---5-5------|-5--5---5-5-----------8---8-7-5----|


             H.=H       Normal BPM Q=150
  E5 D5                 A
 6/4                   5/4
  Gtr I
  Q  H.      +H         E  E  E E  E  E E  E  E  E
|-------------------||-----------------------------|
|-------------------||o----------------------------|
|-9--7-------(7)----||----14------13------11-------|
|-9--7-------(7)----||-------14------14------12----|
|-7--5-------(5)----||o-0-------0-------0--------0-|
|-------------------||-----------------------------|
|
| Gtr II
| Q  H.      +H         W                    +Q
|-------------------||-----------------------------|
|-------------------||o----------------------------|
|-9--7-------(7)----||-----------------------------|
|-9--7-------(7)----||--2--------------------(2)---|
|-7--5-------(5)----||o-0--------------------(0)---|
|-------------------||-----------------------------|


                   E        D
                                2/4
   E   E E  E  E E  E E  E   E    +H
|------------------------------|----------||
|------------------------------|---------o||
|-11--13---14------13---13--11-|-(11)-----||
|-------------14---14---14--12-|-(12)-----||
|--------0-------0-------------|---------o||
|------------------------------|----------||
|
| +W                    +Q        +H
|------------------------------|----------||
|------------------------------|---------o||
|------------------------------|----------||
|-(2)-------------------(2)----|--(2)-----||
|-(0)-------------------(0)----|--(0)----o||
|------------------------------|----------||


    A                                                  E       D
   5/4
    E  E  E E  E  E E  E  E  E    E  E E       E  E  E  E E  E  E
||-----------------------------|----------------------------------|
||o----------------------------|----------------------------------|
||----14------13------11-------|-11-13--------14-------13---13-11-|
||-------14------14------12----|-----------------14----14---14-12-|
||o-0-------0-------0--------0-|-------0-------------0------------|
||-----------------------------|----------------------------------|
|
|                                                    ~~
|                                      |-3--|
|   E  E  E E  E  E E  E  E  E    E  E S  S S  E  E  H          E
||-----------------------------|----10-9h10p9---------------------|
||o---14------12------10----10-|-12-----------10------------------|
||-------14------13------11----|------------------9---------------|
||-----------------------------|--------------------11---------12-|
||o-0-------0-------0----------|----------------------------------|
||-----------------------------|----------------------------------|


  1.               2.
 2/4
   +H               +H
|---------------||---------------|
|--------------o||---------------|
|-(11)----------||-(11)----------|
|-(12)----------||-(12)----------|
|--------------o||---------------|
|---------------||---------------|
|
|   E  E  E  E       E   E  E  E
|---------------||---------------|
|--------------o||---------------|
|---------------||------14-13-14-|
|--11--9-11-12--||--14-----------|
|--------------o||---------------|
|---------------||---------------|


  A                                              E       D
 5/4                                                         2/4
   E  E  E E  E  E E  E   E  E    E  E E  E  E E  E E  E  E    +H
|------------------------------|----------------------------|---------|
|------------------------------|----------------------------|---------|
|----14------13------11--------|-11-13---14------13---13-11-|-(11)----|
|-------14------14-------12----|------------14---14---14-12-|-(12)----|
|--0-------0-------0---------0-|-------0-------0------------|---------|
|------------------------------|----------------------------|---------|
|
|  W                     +Q       E  E W                       +H
|------------------------------|----------------------------|---------|
|------------------------------|----------------------------|---------|
|------------------------------|----------------------------|---------|
|-14--------------------(14)---|-12-11-7--------------------|--(7)----|
|------------------------------|----------------------------|---------|
|------------------------------|----------------------------|---------|


  A                                           E       D
 5/4                                                      2/4
  E  E  E E  E  E E  E  E E    E  E E  E  E E  E E  E  E    +H
|---------------------------|----------------------------|---------|
|---------------------------|----------------------------|---------|
|---14------13------11------|-11-13---14------13---13-11-|-(11)----|
|------14------14------12---|------------14---14---14-12-|-(12)----|
|-0-------0-------0-------0-|-------0-------0------------|---------|
|---------------------------|----------------------------|---------|
|
| W                     Q      W                    Q        H
|---------------------------|----------------------------|---------|
|---------------------------|----------------------------|---------|
|---------------------------|----------------------------|---------|
|---------------------------|----------------------------|---------|
|---------------------------|----------------------------|---------|
|---------------------------|----------------------------|---------|


    A5/E            D5          A/C#                A5/E
   5/4                                                   2/4
     Q   E  E  E  E  Q   E  E    E E  Q   E E  E  E  Q      E  E E E
||----------------------------|-------------------------|------------|
||o---------------------------|-------------------------|------------|
||--14--14----------14--14----|-14---14--14---------14--|--14--------|
||--14--14----------12--12----|-11---11--11---------14--|--14--------|
||o---------0--0--0---------0-|----0--------0--0--0-----|------0-0-0-|
||----------------------------|-------------------------|------------|
|
|    Q   E  E  E  E  Q   E  E    E E  Q   Q    E  E  Q     +H
||----------------------------|-------------------------|------------|
||o---------------------------|-------------------------|------------|
||----------------------------|-------------------------|------------|
||--14--14-14-12-11-12--12-12-|-11-9-11-----------------|------------|
||o---------------------------|----------12-------------|------------|
||----------------------------|---------------14-12-12--|-(12)-------|


                                 1.
  F#5          D5                E5
 6/4
  H.           H.                 W.
|------------------------------|--------------------------------||
|------------------------------|-------------------------------o||
|--------------7---------------|--9-----------------------------||
|-4------------7---------------|--9-----------------------------||
|-4------------5---------------|--7----------------------------o||
|-2----------------------------|--------------------------------||
|
| E  E E E E E E  E E  E  E  E    Q.    E  E  E  E  E  E  Q.
|------------------------------|--------------------------------||
|------------------------------|-------12-12-14-15-14-12-14----o||
|------------------------14----|-13----13-13-14-16-14-13-14-----||
|-2--2-2s4-4-4s7--7-7s11----11-|--------------------------------||
|------------------------------|-------------------------------o||
|------------------------------|--------------------------------||


  2.
    W.
|------------------------------------|
|------------------------------------|
|---9--------------------------------|
|---9--------------------------------|
|---7--------------------------------|
|------------------------------------|
|
|   Q.    E  E  E  E  E  E  E  E  E
|------------------------------------|
|--------12-12-14-15-14-12-14-12-14--|
|--13----13-13-14-16-14-13-14--------|
|------------------------------------|
|------------------------------------|
|------------------------------------|


  F                                               E       D
 6/4
   E  E  E E  E  E E  E   E  E  E  E    E  E  E E  E E  E  E  +H
|------------------------------------|-----------------------------------|
|------------------------------------|-----------------------------------|
|----14------13------11--------11-13-|----14------13---13-11-(11)--------|
|-------14------14-------12----------|-------14---14---14-12-(12)--------|
|--0-------0-------0---------0-------|--0-------0------------------------|
|------------------------------------|-----------------------------------|
|
|  W                     +Q     E  E    W                     +Q    E  E
|------------------------------------|-----------------------------17-16-|
|------------------------------14-15-|-17--------------------(17)--------|
|-14--------------------(14)---------|-----------------------------------|
|------------------------------------|-----------------------------------|
|------------------------------------|-----------------------------------|
|------------------------------------|-----------------------------------|


  A                                                E       D
                                     8/4
   E   E  E E  E  E E  E  E E  E  E     E   E  E E  E E  E  E  +H.       +Q
|-----------------------------------|-----------------------------------------|
|-----------------------------------|-----------------------------------------|
|-----14------13------11------11-13-|------14------13---13-11-(11)------(11)--|
|--------14------14------12---------|---------14---14---14-12-(12)------(12)--|
|--0--------0-------0-------0-------|---0--------0----------------------------|
|-----------------------------------|-----------------------------------------|
|
|  W.                                  +W                      +W
|-17--------------------------------|-(17)--------------------(17)------------|
|-----------------------------------|-----------------------------------------|
|-----------------------------------|-----------------------------------------|
|-----------------------------------|-----------------------------------------|
|-----------------------------------|-----------------------------------------|
|-----------------------------------|-----------------------------------------|


  A5             F#5                      G5             E5
 4/4
  W               W                       W              W
|--------------|------------------------|--------------|-------------------|
|--------------|--7---------------------|--------------|-------------------|
|-2------------|--6---------------------|--------------|-------------------|
|-2------------|--4---------------------|-5------------|-2-----------------|
|-0------------|------------------------|-5------------|-2-----------------|
|--------------|------------------------|-3------------|-0-----------------|
|
|                                                        ~
|        |-3-|       |-3--|                    |-3--|             |-3-|
| H    a Q Q Q    Q  S  S S   H     +E    H    Q Q  Q    H    E E S S S E
|--------------|------------------------|--------------|-------------------|
|--------------|-10--9h10p9-------------|--------------|-------------------|
|----------6-9-|------------h11----(11)-|------7-9-11--|-9----6-7-6h7p6-4--|
|------6-7-----|------------------------|--------------|-------------------|
|-0------------|------------------------|--------------|-------------------|
|--------------|------------------------|--------------|-------------------|


  A5              F#5                    D5                  E5
  W               W                        W                  W
|---------------|----------------------|-------------------|-------|
|---------------|-7--------------------|-------------------|-------|
|-2-------------|-6--------------------|---7---------------|-------|
|-2-------------|-4--------------------|---7---------------|--2----|
|-0-------------|----------------------|---5---------------|--2----|
|---------------|----------------------|-------------------|--0----|
|
|                                                             ~~
|      |--3--|    |-----3------|                  |--3--|
| H    Q  Q  Q    Q  Q S  S S  Q  Q.      +H      Q  Q  Q     W
|---------------|-9-10-9-10-9----------|-------------------|-------|
|--------10-12--|-------------12-10----|-(10)----10-12-14--|-12----|
|------9--------|----------------------|-------------------|-------|
|-7-------------|----------------------|-------------------|-------|
|---------------|----------------------|-------------------|-------|
|---------------|----------------------|-------------------|-------|


  A5               F#5                  G5                  E5
  W                 W                     W                  W
|----------------|--------------------|-------------------|------------------|
|----------------|--7-----------------|-------------------|------------------|
|-2--------------|--6-----------------|-------------------|------------------|
|-2--------------|--4-----------------|---5---------------|--2---------------|
|-0--------------|--------------------|---5---------------|--2---------------|
|----------------|--------------------|---3---------------|--0---------------|
|
|                          ~~~~~~~~~~~~~~~~~~
|       |--3--|                                  |--3--|
| H     Q  Q  Q     Q   E  Q.    +Q      +H      Q  Q  Q     H     Q.      E
|----------------|-17--16-14----(14)--|-(14)----14-16-17S=|=19----19b21r==17-|
|---------14-17--|--------------------|-------------------|------------------|
|------14--------|--------------------|-------------------|------------------|
|----------------|--------------------|-------------------|------------------|
|----------------|--------------------|-------------------|------------------|
|----------------|--------------------|-------------------|------------------|


  A5                    F#5
   W                     W
|---------------------|-----------------|
|---------------------|--7--------------|
|--2------------------|--6--------------|
|--2------------------|--4--------------|
|--0------------------|-----------------|
|---------------------|-----------------|
|
|                                 ~~
|                        |--3--|
|  H        Q.      E    Q  Q  Q  H
|-19b21r===19b21r==17-|-19-17-16-17-----|
|---------------------|-----------------|
|---------------------|-----------------|
|---------------------|-----------------|
|---------------------|-----------------|
|---------------------|-----------------|


                                                             D.S. al Coda
  D5                                    E5
   W                                     E    E     E    E     E  E E  E
|-------------------------------------|-------------------------------------|
|-------------------------------------|-------------------------------------|
|--7----------------------------------|-------------------------------------|
|--7----------------------------------|--2----------------------------------|
|--5----------------------------------|--2----------------------------------|
|-------------------------------------|--0----0-----0----0-----0--0-0--0----|
|
|  |--3--|  |--3--|  |--3--|  |--3--|    |---3---|  |---3---|
|  E  E  E  E  E  E  E  E  E  E  E  E    E  E    E  E  E    E  Q.      S  S
|-19-17-16-17-16----16----------------|-------------------------------------|
|----------------19----19-17-19-17-15-|-17-15------15-----------------------|
|-------------------------------------|---------18----18---14-16------16-14-|
|-------------------------------------|-------------------------------------|
|-------------------------------------|-------------------------------------|
|-------------------------------------|-------------------------------------|


  Moderate Rock Q=220
  &
  F#                                               D5    A5
 6/4
  Gtrs I, II
   Q     E  E E E Q  E E E   E     Q     E E  E  E  Q.   Q.
|-------------------------------|-----------------------------|
|-------------------------------|-----------------------------|
|-------------------------------|-------------------7---------|
|-------------------------------|-------------------7----7----|
|-------------------------------|-------------------5----7----|
|--2-----2--2-2-2-2--2-2-2---2--|--2-----2-2--2--2-------5----|
|
| Gtr III
|  E  E  E  W               +E     H          E  E  H.
|----13-12-10--------------(10)-|-15b17------15-13-12---------|
|-10----------------------------|-----------------------------|
|-------------------------------|-----------------------------|
|-------------------------------|-----------------------------|
|-------------------------------|-----------------------------|
|-------------------------------|-----------------------------|


  F#                                               E5      A5
   Q     E  E E E Q  E E E   E     Q     E E  E  E  Q.     Q.
|-------------------------------|-------------------------------|
|-------------------------------|-------------------------------|
|-------------------------------|-------------------------------|
|-------------------------------|-------------------2------7----|
|-------------------------------|-------------------2------7----|
|--2-----2--2-2-2-2--2-2-2---2--|--2-----2-2--2--2--0------5----|
|
|  E  E  E  W               +E     H          E  E  H.
|-17-25-24-22--------------(22)-|-20b22------20-----------------|
|-------------------------------|---------------22-20b22--------|
|-------------------------------|-------------------------------|
|-------------------------------|-------------------------------|
|-------------------------------|-------------------------------|
|-------------------------------|-------------------------------|


  F#                                               D5      A5
   Q     E E  E E  Q   E E E E    Q     E  E  E  E  Q.     Q.
|------------------------------|--------------------------------|
|------------------------------|--------------------------------|
|------------------------------|--------------------7-----------|
|------------------------------|--------------------7------7----|
|------------------------------|--------------------5------7----|
|--2-----2-2--2-2--2---2-2-2-2-|--2-----2--2--2--2---------5----|
|
|  H          Q    Q   H          E  E  E  E  E  E  H.
|------------------------------|--------------------------------|
|-20b22r=====18---17--15-------|----13--------------------------|
|------------------------------|-14----14-12-14-12-12b14--------|
|------------------------------|--------------------------------|
|------------------------------|--------------------------------|
|------------------------------|--------------------------------|


                                       D.S.S. al Dbl. Coda
  F#                                           E5    A5
   Q     E  E  E  E Q    E E E E   Q   E E E E Q.    Q.
|--------------------------------|--------------------------|
|--------------------------------|--------------------------|
|--------------------------------|--------------------------|
|--------------------------------|-------------2-----7------|
|--------------------------------|-------------2-----7------|
|--2-----2--2--2--2-2----2-2-2-2-|-2---2-2-2-2-0-----5------|
|
|  E  E  E  E  E  E E  E E E E E   E E E E E E H        E E
|--------------------------------|-5-3-1-0-1-0--------------|
|----10--------------------------|-------------4b6------3-1-|
|-12----12-10-12-10-9-10-9-7-5-7-|--------------------------|
|--------------------------------|--------------------------|
|--------------------------------|--------------------------|
|--------------------------------|--------------------------|


  Slower Q=150
  &&
  A5             F#5
 4/4
  Gtr I
  W               W
|--------------|------------------------|
|--------------|--7---------------------|
|-2------------|--6---------------------|
|-2------------|--4---------------------|
|-0------------|------------------------|
|--------------|------------------------|
|
| Gtr II
|        |-3-|       |-3--|
| H    a Q Q Q    Q  S  S S   H     +E
|--------------|------------------------|
|--------------|-10--9h10p9-------------|
|----------6-9-|------------h11----(11)-|
|------6-7-----|------------------------|
|-0------------|------------------------|
|--------------|------------------------|


  G5                  E5
  W                    W
|-------------------|---------------------|
|-------------------|---------------------|
|-------------------|---------------------|
|-5-----------------|--2------------------|
|-5-----------------|--2------------------|
|-3-----------------|--0------------------|
|
| Q.    E  E  Q   E    E  Q   E  E  Q   E
|-------------------|---------------------|
|-------------------|---------------------|
|------11-11S13--13-|-13S14--14-14S16--18-|
|-------------------|---------------------|
|-------------------|---------------------|
|-------------------|---------------------|


  A5                    F#5
   W                     W
|---------------------|-------------------------------------|
|---------------------|--7----------------------------------|
|--2------------------|--6----------------------------------|
|--2------------------|--4----------------------------------|
|--0------------------|-------------------------------------|
|---------------------|-------------------------------------|
|
|  H     +E   E  E  E    Q.    S  S  S  S  S  S  S  S  S  S
|---------------------|-------------------------12-14-16-17-|
|------------15-------|----------------12-14-15-------------|
|-18----(18)----18-16-|-14----11-13-14----------------------|
|---------------------|-------------------------------------|
|---------------------|-------------------------------------|
|---------------------|-------------------------------------|


  D5             E5
                        PM----|
   W              H     Q     Q
|--------------|--------------------|
|--------------|--------------------|
|--7-----------|--------------------|
|--7-----------|--2-----------------|
|--5-----------|--2-----2-----2-----|
|--------------|--0-----0-----0-----|
|
|  H.       Q     H     Q.       E
|-17-------19--|-19----19b21r===17--|
|--------------|--------------------|
|--------------|--------------------|
|--------------|--------------------|
|--------------|--------------------|
|--------------|--------------------|


  A5                    F#5
   W                     W
|---------------------|-------------------------|
|---------------------|--7----------------------|
|--2------------------|--6----------------------|
|--2------------------|--4----------------------|
|--0------------------|-------------------------|
|---------------------|-------------------------|
|
|                              |--3--|  |--3--|
|  H        Q.      E    H     E  E  E  E  E  E
|-19b21r===19b21r==17-|-16----16-17-16-14-16-14-|
|---------------------|-------------------------|
|---------------------|-------------------------|
|---------------------|-------------------------|
|---------------------|-------------------------|
|---------------------|-------------------------|


  G5                                    E5
   W                                     W
|-------------------------------------|--------------------|
|-------------------------------------|--------------------|
|-------------------------------------|--------------------|
|--5----------------------------------|--2-----------------|
|--5----------------------------------|--2-----------------|
|--3----------------------------------|--0-----------------|
|
|  |--3--|  |--3--|  |--3--|  |--3--|
|  E  E  E  E  E  E  E  E  E  E  E  E    H        H
|-12-14-12----------------------------|--------------------|
|----------15-17-15-14-15-14-12-14-12-|-12b14r===12b14r====|
|-------------------------------------|--------------------|
|-------------------------------------|--------------------|
|-------------------------------------|--------------------|
|-------------------------------------|--------------------|


  A5                    F#5
   W                     W
|---------------------|---------------------|
|---------------------|--7------------------|
|--2------------------|--6------------------|
|--2------------------|--4------------------|
|--0------------------|---------------------|
|---------------------|---------------------|
|
|  H     +E   E  E  E    H     +E   E  E  E
|------------17-16-17-|------------17-16-17-|
|-10----(10)----------|-17----(17)----------|
|---------------------|---------------------|
|---------------------|---------------------|
|---------------------|---------------------|
|---------------------|---------------------|


  D5                     E5
   W                      W
|----------------------|---------------------|
|----------------------|---------------------|
|--7-------------------|---------------------|
|--7-------------------|--2------------------|
|--5-------------------|--2------------------|
|----------------------|--0------------------|
|
|  |--3--|                |--3--|  |--3--|
|  Q  Q  Q  Q.      E     Q  Q  Q  Q  Q  Q
|-19-17-19-19b21r==17--|-16------------------|
|----------------------|----17---------------|
|----------------------|-------16-14-13-14---|
|----------------------|---------------------|
|----------------------|---------------------|
|----------------------|---------------------|


  A5               F#5           D5         E5
                                                   PM-|
   W               W             W           H     Q  Q
|----------------|-------------|----------|--------------|
|----------------|-7-----------|----------|--------------|
|--2-------------|-6-----------|-7--------|--------------|
|--2-------------|-4-----------|-7--------|--2-----------|
|--0-------------|-------------|-5--------|--2-----2--2--|
|----------------|-------------|----------|--0-----0--0--|
|
|  H.       E  E   H.      E E   W          +W
|----------------|-------------|----------|--------------|
|----------------|-------------|----------|--------------|
|-14-------13-14-|-9-------7-6-|----------|--------------|
|----------------|-------------|-7--------|-(7)----------|
|----------------|-------------|----------|--------------|
|----------------|-------------|----------|--------------|


  A5                F#5
  W                  W
|---------------||--------------------|
|---------------||o--7----------------|
|-2-------------||---6----------------|
|-2-------------||---4----------------|
|-0-------------||o-------------------|
|---------------||--------------------|
|
| H     H            H     +E   Q   E
|------19b21----||--19----(19)-17--16-|
|---------------||o-------------------|
|---------------||--------------------|
|---------------||--------------------|
|---------------||o-------------------|
|---------------||--------------------|


  D5               E5                  A5
   W                W                   W              3x
|----------------|-------------------|-----------------||
|----------------|-------------------|----------------o||
|--7-------------|-------------------|--2--------------||
|--7-------------|--2----------------|--2--------------||
|--5-------------|--2----------------|--0-------------o||
|----------------|--0----------------|-----------------||
|
|  H     H          H     +E   Q   E    H     H        3x
|-17----19b21----|-19----(19)-17--16-|-17----19b21-----||
|----------------|-------------------|----------------o||
|----------------|-------------------|-----------------||
|----------------|-------------------|-----------------||
|----------------|-------------------|----------------o||
|----------------|-------------------|-----------------||


Duration Legend
---------------
W - whole; H - half; Q - quarter; E - 8th; S - 16th; T - 32nd; X - 64th; a - acciaccatura
+ - note tied to previous; . - note dotted; .. - note double dotted
Uncapitalized letters represent notes that are staccato (1/2 duration)
Irregular groupings are notated above the duration line
Duration letters will always appear directly above the note/fret number it represents the
duration for.  Duration letters with no fret number below them represent rests.  Multi-
bar rests are notated in the form Wxn, where n is the number of bars to rest for.  Low
melody durations appear below the staff

Tablature Legend
----------------
 h   - hammer-on
 p   - pull-off
 b   - bend
 pb  - pre-bend
 r   - bend release (if no number after the r, then release immediately)
 /\  - slide into or out of (from/to "nowhere")
 s   - legato slide
 S   - shift slide
  - natural harmonic
[n]  - artificial harmonic
n(n) - tapped harmonic
 ~   - vibrato
 tr  - trill
 T   - tap
 TP  - trem. picking
 PM  - palm muting
\n/  - tremolo bar dip; n = amount to dip
 \n  - tremolo bar down
 n/  - tremolo bar up
/n\  - tremolo bar inverted dip
 =   - hold bend; also acts as connecting device for hammers/pulls
 <>  - volume swell (louder/softer)
 x   - on rhythm slash represents muted slash
 o   - on rhythm slash represents single note slash

Misc Legend
-----------
 |  - bar
||  - double bar
||o - repeat start
o|| - repeat end
*|  - double bar (ending)
 :  - bar (freetime)
 $  - Segno
 &  - Coda
Tempo markers -  = BPM(8/16=s8/s16), where s8 = swing 8ths, s16 = swing 16ths


***************************************************************************************
* Generated using Power Tab Editor by Brad Larsen - http://powertab.guitarnetwork.org *
***************************************************************************************


In Flames albums
2004 Soundtrack to Your Escape
2002 Reroute to Remain
2000 Clayman
1999 Colony
1997 Black-Ash Inheritance
1997 Whoracle
1995 Jester Race
1994 Subterranean
1994 Lunar Strain
Jester Race tabs
01Moonshield tabbass tab
02The Jester's Dance tabbass tab
03Artifacts of the Black Rain tabbass tab
04Graveland tabbass tab
05Lord Hypnos tabbass tab
06Dead Eternity tabbass tab
07The Jester Race tabbass tab
08December Flower tabbass tab
09Wayfaerer tabbass tab
10Dead God in Me tabbass tab

 

1