Search tabs:
Browse artists: 0-9 | A | B | C | D | E | F | G | H | I | J | K | L | M | N | O | P | Q | R | S | T | U | V | W | X | Y | Z
/ Jack Johnson / In Between Dreams (2005) / No Other Way guitar tab

-------------------------------------------------------------------------------
			     No Other Way - Jack Johnson
-------------------------------------------------------------------------------
Tabbed by: Matt Byrne
Email: schloss_im_nacht@yahoo.com

Tuning: **Drop D and Capo 3**


    Intro
e|-----------------------------------------|
B|-3/5--3/5--3--0--3--3/5-3/5--3----------3|
G|------------------------------------0----|
D|-0----0-------------0---0----0----0---0--|  X2
A|-----------------------------------------|
E|-----------------------------------------|

    Figure 1

e|------------------------------------------------------------|
B|------------------------------------------------------------|
G|-------7-----------------------------7----------------------|
D|---7/9---9-9---------9-----------7/9---9-9--------9---------|
A|-----------------7/9---9\5--------------------7/9---9\5-----|
E|-0--------0----0---------------0--------0---0---------------|



e|------------------------------------------------------------|
B|------------------------------------------------------------|
G|------------------------------------7-----------------------|
D|---7/9---5----------9-----------7/9---9-9---------9---------|
A|---------------7/9----9/5---------------------7/9---9\5-----|
E|-0-----------0----------------0--------0----0---------------|


    Verse - Fingerpick - Listen to Song for Counting
e|---------------------------------------------------------------------------|
B|---------------------------------------------------------------------------|
G|---------------------------------------------------------------------------|
D|-------4--------4----------4\2--0---0------5--------5--------5-------------|
A|---5--------5---------5----------------5--------5--------5--------5---5----|
E|-0---0--------0---0-----0---------0--5---5--------5---5----5--------5------|



e|---------------------------------------------------------------------------|
B|---------------------------------------------------------------------------|
G|---------------------------------------------------------------------------|
D|-------2-------2-------2---------/--------5-------5--------5---------------|
A|---2-------2-------2------2---2--/----5-------5--------5--------5---5------|
E|-2---2-------2---2---2------2----/--5---5-------5---5----5--------5--------|


    Chorus
e|-------------------------------------|
B|-------------------------------------|
G|-------------------------------------|
D|-------4-------4-------7\5---5-------| X3 then
A|---5-------5-------5-----------5---5-|
E|-0---0-------0---0---0-----0-----5---|




e|---------------------------------------------------------------------------|
B|---------------------------------------------------------------------------|
G|---------------------------------------------------------------------------|
D|-------2-------2-------2---------/--------5-------5--------5---------------|
A|---2-------2-------2------2---2--/----5-------5--------5--------5---5------|
E|-2---2-------2---2---2------2----/--5---5-------5---5----5--------5--------|

   Figure 1 Break Again

   Back To Verse
      "Too much silence can be misleading..."

   Chorus

   End with Figure 1



| /  slide up
| \  slide down

===============================================================================


Jack Johnson albums
2005 In Between Dreams
2003 Thicker Than Water: Original Soundtrack
2003 On and On
2001 Brushfire Fairytales
In Between Dreams tabs
01Better Together tabbass tab
02Never Know tabbass tab
03Banana Pancakes tabbass tab
04Good People tabbass tab
05No Other Way tabbass tab
06Sitting, Waiting, Wishing tabbass tab
07Staple It Together tabbass tab
08Situations tabbass tab
09Crying Shame tabbass tab
10If I Could tabbass tab
11Breakdown tabbass tab
12Belle tabbass tab
13Do You Remember tabbass tab
14Constellations tabbass tab

 

1