Search tabs:
Browse artists: 0-9 | A | B | C | D | E | F | G | H | I | J | K | L | M | N | O | P | Q | R | S | T | U | V | W | X | Y | Z
/ Jack Johnson / Thicker Than Water: Original Soundtrack (2003) / Rainbow guitar tab

Jack Johnson
Rainbow
Tabbed by:Matt Jones




e|---------------8-8-----------8---10b12r10---8--------------------
B|-----8---8h10--------8h10----------------------10--8--6----------
G|--/9---------------------------------------------------------7----
D|------------------------------------------------------------------
A|------------------------------------------------------------------
E|------------------------------------------------------------------




e|------------------------------------------------------------------
B|------------------------------------------------------------------
G|--5-----7b9--5--------------------------------------------------
D|-----7------------------------------------------------------------
A|------------------------------------------------------------------
E|------------------------------------------------------------------



the fill he uses after each line
pay while holding the G shape on the E and A

           G                                         C

e|--------1h3--1------------------0--------------------------------------
B|-----------------3--1----------1-------------------------------------
G|------------------------------0-------------------------------------
D|-----------------------------2-------------------------------------
A|-----2----------------------3---------------------------------------
E|-----3----------------------3---------------------------------------


Or that fill can be played up higher like this, which is i believe how was plays it when he's doing the solo

         G			C (barred)
e|------------------------------------------------------------------
B|---6h8--6----------------------5---------------------------------------
G|------------7---5-------------5-------------------------------------
D|-----------------------------5------------------------------------
A|----------------------------3--------------------------------------
E|------------------------------------------------------------------


Now for the actual tab I suppose.

Jack Johnson and G. Love Ė Rainbow, from the Thicker than water soundtrack
Tabbed by Josh DeLehman

Main Chords
String :  E  A  D  G  B  e
C         x  3  2  0  1  0
F         x  x  3  2  1  0
G/C*      3  2  0  0  1  0   donít know the name of this chord so Iíll refer to it as G/C*
G         3  2  0  0  0  3

Intro  C x 8

F			                              		C     G/C*     C
Well I woke up this morning, a rainbow filled the sky

F                                                                  C     G/C*     C
Yes I woke up with morning, a rainbow filled the sky

G                                              F                   C     G/C*     C
Well that was God telling me everythingís gonna be alright

F                                                                  C     G/C*     C
Well so long good friends, when will we meet again?

F                                                                   C     G/C*     C
I said so long good friends, when will we meet again?

G                                                   F                  C     G/C*     C
Well I donít know, I donít know, but I guess Iíll see you then

F                                                                   C     G/C*     C
Well Iím gonna pack my old guitar, move on down the road

F                                                                  C     G/C*     C
Iím gonna pack my old guitar, move on down the road

G                             F                                 C     G/C*     C
Where I go I donít, but I guess I gots to go

F                                                              C     G/C*     C
Well I woke up this morning, a rainbow filled the sky

F                                                              C     G/C*     C
Well I woke up this morning, a rainbow filled the sky

G                                      F                 F      C     G/C*     C
That was God telling me everything, everythingís gonna be alright


Jack Johnson albums
2005 In Between Dreams
2003 Thicker Than Water: Original Soundtrack
2003 On and On
2001 Brushfire Fairytales
Thicker Than Water: Original Soundtrack tabs
01Moonshine tabbass tab
02Rainbow tabbass tab
07Holes to Heaven tabbass tab
13Thicker Than Water tabbass tab

 

1