Search tabs:
Browse artists: 0-9 | A | B | C | D | E | F | G | H | I | J | K | L | M | N | O | P | Q | R | S | T | U | V | W | X | Y | Z
/ Jeff Buckley / Grace (1994) / Dream Brother guitar tab

BAND:        Jeff Buckley
SONG:        Dream Brother
ALBUM:	    Grace
TABBED BY:   el sancco (sancco@hotmail.com)


RIFF 1: (NOTE: Variate as you wish between these riffs for the verses and the introduction)
-------

RIFF 1A:
|-----------------|-----------------|
|-4---4-3---3---3-|-1---1-0-1-3---3-|
|---0-----0---0---|---0---------0---|
|-----------------|-----------------|
|-----------------|-----------------|
|-----------------|-----------------|

RIFF 1B:
|-----------------|---------------1-|
|-4---4-3---3---3-|-1---1-0-1-3-----|
|---0-----0---0---|---0---------0---|
|-----------------|-----------------|
|-----------------|-----------------|
|-----------------|-----------------|

RIFF 1C:
|-----1-----------|---------------1-|
|-4-----3---3---3-|-1---1-0-1-3-----|
|---0-----0---0---|---0---------0---|
|-----------------|-----------------|
|-----------------|-----------------|
|-----------------|-----------------|

RIFF 1D:
|-----1-----------|-------------1-3-|
|-4-----3---3---3-|-1---1-0-1-3-----|
|---0-----0---0---|---0-------------|
|-----------------|-----------------|
|-----------------|-----------------|
|-----------------|-----------------|



PRE-CHORUS:
-----------

|-----------------|-----------------|
|-4---4-3---3---3-|-----------------|
|---0-----0---0---|-----------------|
|-----------------|-----------------|
|-----------------|-----5-5-5-5-5-5-|
|-----------------|-----3-3-3-3-3-3-|



CHORUS:
-------

|-3-3-3-3-3-3-3-3-|-5-5-5-5-5-5-5-5-|-5-5-5-5-5-5-5-5-|
|-3-3-3-3-3-3-3-3-|-4-4-4-4-4-4-4-4-|-3-3-3-3-3-3-3-3-|
|-3-3-3-3-3-3-3-3-|-5-5-5-5-5-5-5-5-|-5-5-5-5-5-5-5-5-| Play
|-----------------|-----------------|-----------------|  x2
|-----------------|-----------------|-----------------|
|-----------------|-----------------|-----------------|

|-3-3-3-3-3-3-3-3-|
|-3-3-3-3-3-3-3-3-|
|-3-3-3-3-3-3-3-3-|
|-----------------|
|-----------------|
|-----------------|



BRIDGE PART 1:
--------------

|-----------------|---------------1-|-----4-----------|-----1---------1-|
|-4---4-3---3---3-|-1---1-0-1-3-----|-4-----3---3---3-|-1-----3---3-----|
|---0-----0---0---|---0---------0---|---0-----0---0---|---0-----0---0---|
|-----------------|-----------------|-----------------|-----------------|
|-----------------|-----------------|-----------------|-----------------|
|-----------------|-----------------|-----------------|-----------------|

|-----4-----1---1-|-----3-----1---1-|-----4-----1---1-|-----3-----1---1-|
|-4-----3---------|---1---1-----3---|-4-----3---------|---1---1-----3---|
|---0-----0---0---|-0-------0-------|---0-----0---0---|-0-------0-------|
|-----------------|-----------------|-----------------|-----------------|
|-----------------|-----------------|-----------------|-----------------|
|-----------------|-----------------|-----------------|-----------------|



BRIDGE PART 2:
--------------

|-----3-----3---3-|-----------------|-----------------|-----------------|
|-4-----4-----4---|-4---3---1-1-----|-1-----3---3-3-3-|-3-3-3-3-3-3-1-3-|
|---0-----0-------|---0-----2-2-----|-0-----0---0-0-0-|-0-0-0-0-0-0-----|
|-----------------|---------3-3-----|-3-----0---0-0-0-|-0-0-0-0-0-0-----|
|-----------------|---------3-3-----|-3---------------|-----------------|
|-----------------|---------1-1-----|-------3---3-3-3-|-3-3-3-3-3-3-----|

|-----3-----3---3-|-----5-----------|-----------------|-----------------|
|-4-----4-----4---|-4-------1-1-----|-1-----3---3-3-3-|-3-3-3-3-3-3-3-3-|
|---0-----0-------|---0-----2-2-----|-0-----0---0-0-0-|-0-0-0-0-0-0-0-0-|
|-----------------|---------3-3-----|-3-----0---0-0-0-|-0-0-0-0-0-0-0-0-|
|-----------------|---------3-3-----|-3---------------|-----------------|
|-----------------|---------1-1-----|-------3---3-3-3-|-3-3-3-3-3-3-3-3-|

|-7-7-7-7-7-7-7-7-|-7-7-7-7---------|-----------------|-----------------|
|-5-5-5-5-5-5-5-5-|-5-5-5-5-1-1-----|-1-----3---3-3-3-|-3---------------|
|-5-5-5-5-5-5-5-5-|-5-5-5-5-2-2-----|-0-----0---0-0-0-|-0---------------|
|-5-5-5-5-5-5-5-5-|-5-5-5-5-3-3-----|-3-----0---0-0-0-|-0-9-9-9-9-9-9-9-|
|-----------------|---------3-3-----|-3---------------|-----------------|
|-----------------|---------1-1-----|-------3---3-3-3-|-3-7-7-7-7-7-7-7-|

|-----------------|-7-7-7-7-7-7-7-7-|-7-7-7-7---------|-----------------|
|-----------------|-5-5-5-5-5-5-5-5-|-5-5-5-5-1-1-----|-1-----3---------|
|-----------------|-5-5-5-5-5-5-5-5-|-5-5-5-5-2-2-----|-0-----0---------|
|-9-9-9-9-7-------|-5-5-5-5-5-5-5-5-|-5-5-5-5-3-3-----|-3-----0---------|
|-----------------|-----------------|---------3-3-----|-3---------------|
|-7-7-7-7-5-------|-----------------|---------1-1-----|-------3---------|



CHORUS: (NOTE: The 4th time you play this chorus, do not play the last bar)
-------

|-5-5-5-5-5-5-5-5-|-5-5-5-5-5-5-5-5-|-3-3-3-3-3-3-3-3-|-3-3-3-3-3-3-3-3-|
|-4-4-4-4-4-4-4-4-|-3-3-3-3-3-3-3-3-|-3-3-3-3-3-3-3-3-|-3-3-3-3-3-3-3-3-|
|-5-5-5-5-5-5-5-5-|-5-5-5-5-5-5-5-5-|-3-3-3-3-3-3-3-3-|-3-3-3-3-3-3-3-3-| Play
|-----------------|-----------------|-----------------|-----------------|  x4
|-----------------|-----------------|-----------------|-----------------|
|-----------------|-----------------|-----------------|-----------------|


BRIDGE:
-------


|-----------------|---------------1-|-----4-----------|-----1---------1-|
|-4---4-3---3---3-|-1---1-0-1-3-----|-4-----3---3---3-|-1-----3---3-----|
|---0-----0---0---|---0---------0---|---0-----0---0---|---0-----0---0---|
|-----------------|-----------------|-----------------|-----------------|
|-----------------|-----------------|-----------------|-----------------|
|-----------------|-----------------|-----------------|-----------------|


|-----------------|---------------1-|-----4-----------|-----1---------1-|
|-4---4-3---3---3-|-1---1-0-1-3-----|-4-----3---3---3-|-1-----3---3-----|
|---0-----0---0---|---0---------0---|---0-----0---0---|---0-----0---0---|
|-----------------|-----------------|-----------------|-----------------|
|-----------------|-----------------|-----------------|-----------------|
|-----------------|-----------------|-----------------|-----------------|


OUTRO:
------

|-----------------|
|-----------------|
|---PLAY-RIFF-1---|
|-------x7--------|
|-----------------|
|-----------------|

|-----------------|---------------7-|-----------------|
|-4---4-3---3---3-|-1---1-0-1-3-8---|-----------------|
|---0-----0---0---|---0-------------|-8-----7---------|
|-----------------|-----------------|-----------------|
|-----------------|-----------------|-----------------|
|-----------------|-----------------|-----------------|


---------------------------------------------
Transcribed By SANCCO (sancco@hotmail.com)
---------------------------------------------


Jeff Buckley albums
2000 Mystery White Boy
1998 Sketches For My Sweetheart the Drunk
1994 Grace
Grace tabs
01Mojo Pin tabbass tab
02Grace tabbass tab
03Last Goodbye tabbass tab
04Lilac Wine tabbass tab
05So Real tabbass tab
06Hallelujah tabbass tab
08Corpus Christi Carol tabbass tab
09Eternal Life tabbass tab
10Dream Brother tabbass tab

 

1