Search tabs:
Browse artists: 0-9 | A | B | C | D | E | F | G | H | I | J | K | L | M | N | O | P | Q | R | S | T | U | V | W | X | Y | Z
/ Jeff Buckley / Sketches For My Sweetheart the Drunk (1998) / Morning Theft guitar tab

BAND:        Jeff Buckley
SONG:        Morning Theft
ALBUM:	    Sketches (For My Sweetheart, The Drunk)
TABBED BY:   el sancco (sancco@hotmail.com)



INTRO:
------

e|---------------------------------------------------------|
B|---------------------------------------------------------|
G|---------------------------------------------------------|
D|-3/10-10-10-10-10-10-10-10-10-10-10-10-10-10-10-10-10-10-|
A|-1/-8--8--8--8--8--8--8--8--8--8--8--8--8--8--8--8--8--8-|
E|---------------------------------------------------------|



VERSE:
------

e|-------------------------------------|
B|-------------------------------------|
G|-------------------------------------|
D|-10-10-10-10-10-10--8--8--8--8--8--8-|
A|--8--8--8--8--8--8--8--8--8--8--8--8-|
E|-------------------------------------|
                                        PLAY x3
e|-------------------------------------|/
B|-------------------------------------|
G|-------------------------------------|
D|-10-10-10-10-10-10/------------------|
A|--8--8--8--8--8--8/-3--3--3--3--3--3-|
E|--------------------1--1--1--1--1--1-|



VERSE END 1:
------------

e|-------------------------------------------------|
B|-------------------------------------------------|
G|-------1-------1---3-----------2-----------------|
D|-----1---1-1-------3---------3-----3-------------|
A|---3-------------3-5---5/--3---------3-3-3-3-3-3-|
E|-4-----------4---------6/1-------1---1-1-1-1-1-1-|



VERSE END 2:
------------

e|-------------------------------------------------|
B|-------------------3-----------------------------|
G|-------1---------3-------------2-----------------|
D|-----1-----1---3-------3-----3-----3-----3-------|
A|---3-----------------------3-----------3-----3---|
E|-4-----------3-----------1-----------1-----------|



CHORUS:
-------

e|-------------------------|
B|-------------------------|
G|-------------1-----------| PLAY
D|---------1---0-----------|  x2
A|-----3-------3-----------|
E|-4-----------4-----------|

e|-------------------------|
B|-------------1-----------|
G|-------0---1-------3-----|
D|-----3-------------------|
A|-4-----------------------|
E|-------------------------|

e|-------------------------|
B|-------------------------|
G|-3-3-3-3-3-3-3-3-3-3-3-3-|
D|-0-0-0-0-0-0-0-0-0-0-0-0-|
A|-------------------------|
E|-------------------------|



VERSE:
------

e|-------------------------------------------------|
B|-------6-----------------------6-----6-6-6-6-6-6-|
G|-----7---7-------7-7-7-7-----7---7---7-7-7-7-7-7-|
D|---5-------5---5---5-5-5---7-------7-7-7-7-7-7-7-|
A|-6-----------6-----------5-----------------------|
E|-------------------------------------------------|

e|-------5-----------------------------------------|
B|-----5-5-5-------5-----5-----3---3---------------|
G|---5-------5---5---5-------3-------------5-----5-|
D|-------------7-------7---5-----5---5---3-----3---|
A|-------------------------------------5-----5-----|
E|-5-----------------------------------------------|

e|-------------------------------------------------|
B|-------6-----------------------6-----6-6-6-6-6-6-|
G|-----7---7-------7-7-7-7-----7---7---7-7-7-7-7-7-|
D|---5-------5---5---5-5-5---7-------7-7-7-7-7-7-7-|
A|-6-----------6-----------5-----------------------|
E|-------------------------------------------------|

e|-5-5-5-5-5-5-5-5-5-5-5-5-3-----------------------|
B|-5-5-5-5-5-5-5-5-5-5-5-5-3-3-3-3-3-3-------6-----|
G|-5-5-5-5-5-5-5-5-5-5-5-5-3-3-3-3-3-3-----7---7-7-|
D|-7-7-7-7-7-7-7-7-7-7-7-7-5-5-5-5-5-5---7-----7-7-|
A|-------------------------5-----------5-------5-5-|
E|-------------------------3-----------------------|

e|---------------|
B|---------------|
G|-7-7-7---------|
D|-7-7-7---------|
A|-5-5-5-5h7-7-7-|
E|---------------|



BRIDGE:
-------

e|-------------------------------------|
B|-------------------------------------|
G|-------------------------------------| PLAY
D|-10-10-10-10-10-10-10-10-10-10-10-10-|  x2
A|--8--8--8--8--8--8-10-10-10/12-12-12-|
E|-------------------------------------|



VERSE:
------

e|-------0-------0-------0-------0-|
B|----10------10------10------10---|
G|-10------10------10------10------| PLAY
D|---------------------------------|  x2
A|---------------------------------|
E|---------------------------------|

e|-------0-------0---------------0-------0------------|
B|----10------10---8---8---8-------6---6--------------|
G|-10------10--------9---9---9-7-----7----------------|
D|----------------------------------------------------|
A|----------------------------------------------------|
E|----------------------------------------------------|



VERSE: - Play this section four times.
------

e|-------------------------------------|
B|-------------------------------------|
G|-------------------------------------| PLAY
D|-10-10-10-10-10-10-10-10-10-10-10-10-|  x2
A|--8--8--8--8--8--8-10-10-10/12-12-12-|
E|-------------------------------------|

e|------------------------------------|
B|------------------------------------|
G|------------------------------------|
D|------------------------------------|
A|----8--8--8--8--8-10-10-10-10-10-10-|
E|-10---10-10-10-10--8--8--8--8--8--8-|

e|-------------------------|
B|-------------------------|
G|-------------------------|
D|-------------------------|
A|-8-8-8-8-8-8-8-8-8-8-8-8-|
E|-6-6-6-6-6-6-6-6-6-6-6-6-|



FINISH:
-------

e|-------------------------------------------------|
B|---------------------3-------------1-------------|
G|-------1---------3-----3-------2-----------------|
D|-----1---------3---3---------3-----------3---3---|
A|---3---------1-------------3-----------3---3---3-|
E|-4-----------------------1-----------1-----------|

e|-------------------------------------|
B|-------------------------------------|
G|-------------1-----------------1-----|
D|---------1---0-------------1---0-----|
A|-----3-------3---------3-------3-----|
E|-4-----------4-----4-----------4-----|

e|-------------------------------------|
B|-------------1-----------------------|
G|-------0---1-------3-----2-----------|
D|-----3-------------------------------|
A|-4-----------------------------------|
E|-------------------------1-----------|



---------------------------------------------
Transcribed By SANCCO (sancco@hotmail.com)
---------------------------------------------


Jeff Buckley albums
2000 Mystery White Boy
1998 Sketches For My Sweetheart the Drunk
1994 Grace
Sketches For My Sweetheart the Drunk tabs
01The Sky Is a Landfill tabbass tab
02Everybody Here Wants You tabbass tab
03Opened Once tabbass tab
04Nightmares by the Sea tabbass tab
08Morning Theft tabbass tab
09Vancouver tabbass tab
14I Know We Could Be So Happy Baby (If We Wanted to Be) tabbass tab
18Your Flesh Is So Nice tabbass tab
19Jewel Box tabbass tab
20Satisfied Mind tabbass tab

 

1