Search tabs:
Browse artists: 0-9 | A | B | C | D | E | F | G | H | I | J | K | L | M | N | O | P | Q | R | S | T | U | V | W | X | Y | Z
/ Jeff Buckley / Sketches For My Sweetheart the Drunk (1998) / Satisfied Mind guitar tab

BAND:        Jeff Buckley
SONG:        Satisfied Mind
ALBUM:	     Sketches (For My Sweetheart, The Drunk)
TABBED BY:   el sancco (sancco@hotmail.com)


I find this to be a truly beautiful song, so i hope this tab helps you
to be able to play it.  This is my tab, so if you wish to use it, please
email me for permission.  Thanks.


INTRO:
------

E|---------------------------------------------|
B|-----------5----5^7---5----5--5--3-----------|
G|--6------6------6^7---6----4--4--2------2----|
D|--7----7--------7-7---7----6--6--4----4------|
A|-----0-------0--0---0----0----------5--------|
E|---------------------------------------------|

E|---------------------------------------------|
B|--------5-----------------------5------------|
G|------6-----6^7-7-6-7-6-------6---6---6------|
D|--->7-------7-----------7---7-------7---7----|
A|--0-------0---------------0------------------|
E|---------------------------------------------|

E|---------------------------------------------|
B|------5-------5--------------3---------------|
G|----4---4---4----4---4-------2--2---->9->7---|
D|--6-------6--------6---6-----4----4----------|
A|---------------------------------------------|
E|---------------------------------------------|

E|--5------------------------------------------|
B|----7^5------5^7--7--5--5--7--9--10----------|
G|-------------6^7--7--6--6--7--9--11----------|
D|--------7----7-7--7--7--7--7--9--12----------|
A|--------0-0-------0-----0--------------------|
E|---------------------------7--9--10----------|

E|--------------------------------------------------------|
B|--10--9--9--7--7--------------8b10----------------------|
G|--11--9--9--7--7-----7b9^5------------7b9b7----5--------|
D|--12--9--9--7--7---------------------------------7------|
A|--------------------------------------------------------|
E|--10--9--9--7--7----------------------------------------|

E|----------------------------------------------------|
B|-5^7--5^7--5-5--------------------------------------|
G|-5^7--5^7--5^6------------9--------7-----7-----7----|
D|-5^7--5^7--5^7-----7--11---------6-----6-----6------|
A|----------------0---------7--6>7-----7-----7--------|
E|-------------------5---9----------------------------|

E|-----------------------------------------------------|
B|-----------7------------------2-----2------3----3----|
G|------7------7--7--6--4--2------2------------0-------|
D|------7--7---------------2--2-----2----->4-----4-----|
A|--5-------------5--4--2--0------------0--------------|
E|-----------------------------------------------------|

E|------------------------------------------------------|
B|------5-----5-----8---8---------10----10-----------12-|
G|--------0---------------------------------------------|
D|----5-----5-----9---9---9----11----11----11--11>12----|
A|--0-----------0-----------0---------------------------|
E|------------------------------------------------------|

E|-----------------------------------------------|
B|----8-----8-----------8------0----5v-----------|
G|--------0---0---0---0------0------5v-----------|
D|--9---9-------9---9------7---------------------|
A|-----------------------------------------------|
E|-----------------------------------------------|



---------------------------------------------
Transcribed By SANCCO (sancco@hotmail.com)
---------------------------------------------


Jeff Buckley albums
2000 Mystery White Boy
1998 Sketches For My Sweetheart the Drunk
1994 Grace
Sketches For My Sweetheart the Drunk tabs
01The Sky Is a Landfill tabbass tab
02Everybody Here Wants You tabbass tab
03Opened Once tabbass tab
04Nightmares by the Sea tabbass tab
08Morning Theft tabbass tab
09Vancouver tabbass tab
14I Know We Could Be So Happy Baby (If We Wanted to Be) tabbass tab
18Your Flesh Is So Nice tabbass tab
19Jewel Box tabbass tab
20Satisfied Mind tabbass tab

 

1