Search tabs:
Browse artists: 0-9 | A | B | C | D | E | F | G | H | I | J | K | L | M | N | O | P | Q | R | S | T | U | V | W | X | Y | Z
/ Jet / Get Born (2003) / Move On guitar tab

Move on

)= start the bend but dont complete it,.. go to next note without.
(= start with the string already bent and bend back to normal note.
b= whole bend
/= slide up
= slide down
r= revrbito




Chods used:
    G     C     D     Am     C?
e|--3-----0-----2-----0------3--------------------------
B|--0-----1-----3-----1------1--------------------------
G|--0-----0-----2-----2------0--------------------------
D|--0-----2-----0-----2------2--------------------------
A|--2-----3-----------0------3--------------------------
E|--3---------------------------------------------------


Intro:

e|----10~----10-----------------------------------------
B|-10)----------(10---8--8r-----------8--------------8--
G|-------------------------------7-/9---9-7------------
D|--------------------------------------------7-/9------
A|------------------------------------------------------
E|------------------------------------------------------


e|------10--------------------8~----12--12-10--87-7~---
B|--10)---(10----8-----8h10-----------------------------
G|------------------9-----------------------------------
D|------------------------------------------------------
A|------------------------------------------------------
E|------------------------------------------------------

e|-----10--------------------------------3----0---------3-
B|-10)----(10----8--8--------------------0----1---------1-
G|-------------------------97/9---75-----0----0---------0-
D|---------------------------------------0----2---------2-
A|---------------------------------------2----3---------3-
E|---------------------------------------3----------------

e|---------3---3-3--------------0---0-0-3------------------
B|---------0---0-0--------------1---1-1---1----------------
G|---------0---0-0-0h2-0------0-0---0-0--------------------
D|---------0---0-0--------0h2---2---2-2------0h2-0---------
A|-2---2---2---2-2--------------3---3-3--------------------
E|-3---3---3---3-3--------------0---0-0--------------------

e|---------3---3-3--------------0---0-0-3~-----------------
B|---------0---0-0--------------1---1-1-1~-----------------
G|---------0---0-0-0h2-0------0-0---0-0--------------------
D|---------0---0-0--------0h2---2---2-2--------------------
A|-2---2---2---2-2--------------3---3-3--------------------
E|-3---3---3---3-3--------------0---0-0--------------------

Verse 1:

          G			     C        G		                 C
Well I      been thinking bout the future            too young to pretend
            G			   C         G				       C
It's such a waste to always look behind you      you should be looking straight ahead

Chorus 1:

D                      C               Am                       C     C?
Yeah I'm gonna have to move on                 before we meet again
G              D                    C        C?       C       C?
Yeah and it's hard if you had have only seen

2nd guitar: G C G C pause (During solo)

Solo:
e|----------------------------------------------------------12)-10
A|----------------(12-------------------------(12-----------------
D|----9b--12--14-------9-----(9--7---9-12-14--------9-------------
G|----------------------------------------------------------------
B|----------------------------------------------------------------
E|----------------------------------------------------------------

Verse 2:

	        G		    C             G                          C		
At ten thirty four Flinders Street Station             I'm looking down the tracks
        G               C                 G                      C
Uniform man asking am I paid up                why would I wanna be there?

Chorus 2:

D                      C               Am                         C     C?
Yeah I'm gonna have to move on                 before we meet again
G              D                   Am                C       C?
Yeah and it's hard if you had have only seen
G       D             C                   C?   C
Take control don't be afraid of me

Verse 3:
C?	    	        G                               C
Cause every once in a while  you think your bad if ya gonna get yourself together
G		               C                      G                             C              G
You should be happy just to be alive and just because      you just don't feel like coming home
			C	
Don't mean that you'll never arrive

Chorus 3:

D                       C            Am                        C    C?
Yeah I'm gonna have to move on                 before we meet again
G             D                    Am              C    C?
Yeah and it's hard if you had have only seen
G     D                C             C?      G
Take control don't be afraid of me
I'll figure our the other leads later...


Jet albums
2004 Rare Tracks
2003 Get Born
Get Born tabs
01Last Chance tabbass tab
02Are You Gonna Be My Girl tabbass tab
03Rollover D.J. tabbass tab
04Look What You've Done tabbass tab
05Get What You Need tabbass tab
06Move On tabbass tab
07Radio Song tabbass tab
08Get Me Outta Here tabbass tab
09Cold Hard Bitch tabbass tab
10Come Around Again tabbass tab
11Take It or Leave It tabbass tab
12Lazy Gun tabbass tab
13Timothy tabbass tab

 

1