Search tabs:
Browse artists: 0-9 | A | B | C | D | E | F | G | H | I | J | K | L | M | N | O | P | Q | R | S | T | U | V | W | X | Y | Z
/ Jet / Rare Tracks (2004) / Back Door Santa guitar tab

jet - back door santa
Tabbed By: black tab man
Email: gtkach@hotmail.com

Tuning: Standard (E A D G B E)

guiar one plays standard tunning
guitar 2 plays open G/E tunning, both play snake rhythm which means guitar 1 and 2
rotate lead power chords and rythyms back and forth

open riff also played with bass

Guitar 1 in (G5)..


E|----------------------------------------------------------------||
B|----------------------------------------------------------------||
G|----------------------------------------------------------------||
D|----------------------------------------------------------------||
A|----------------------------------------------------------------||
E|---3----3----3----3-----3----3----3-----2-------3---------------||

gutar #2 G/E tunning plays::

(E)G)A)G)b)D


D----------------------------------------------------------------||
B|----------------------------------------------------------------||
G|----------------------------------------------------------------||
D|----------------------------------------------------------------||
G|----------------------------------------------------------------||
E|---3----3----3----3-----3----3----3-----0-------3---------------||

opening riff played 4 times then

comes riff No. 2 played 4 times


Guitar 1#

  G
E|---3------3-------||
B|---0------0-------||
G|---0------0-------||
D|---0------0-------||
A|---2------2-------||
E|---3------3-------||


E|----------------||
B|----------------||
G|-10-10--10-----------||
D|-10-10--10------------||
A|-8--8---8----------||
E|----------------||


  C5
E|----------------||
B|----------------||
G|-5--5---5-----------||
D|-5--5---5------------||
A|-3--3---3------------||
E|----------------||


guitar 2 plays a snakey blues rhythm along with guitar 1

D|-0---------------||
B|-0---------------||
G|-0---------------||
D|-0---------------||
G|-0---------------||
E|----------------||


D|----------------||
B|----------------||
G|-10---------------||
D|-10---------------||
G|-10-10--------------||
E|----------------|

|


D|----------------||
B|----------------||
G|-5-5--------------||
D|-5-5--------------||
G|-5-5-0-------------||
E|----------------||

the next 3 times

D|-0---------------||
B|-0---------------||
G|-0---------------||
D|-0---------------||
G|-0---------------||
E|----------------||


D|----------------||
B|----------------||
G|-10---------------||
D|-10---------------||
G|-10---------------||
E|----------------|




D|----------------||
B|----------------||
G|-5--------b5/7-------||
D|-5---------------||
G|-5--5-0-5----------||
E|----------------||

in total with both guitars this riff goes 4 times
then the verse look bellow


guitar one in G goes twice like this

E|-3---3---3---3---3---3---3-----3---3---3---3---3---3---3-----------------------------------||
B|-3---3---3---3---3---3---3-----3---3---3---3---3---3---3-----------------------------------||
G|-4---4---4---4---4---4---4-----4---4---4---4---4---4---4-----------------------------------||
D|-5---5---5---5---5---5---5--3/-5---5---5---5---5---5---5---5-----/5b-----------------------------||
A|-5---5---5---5---5---5---5--3/-5---5---5---5---5---5---5--3--3-0---------------------------------||
E|----------------------------------------------------------------||
they call me the back door santa......

at the same time guitar 2 is goin
at same pace as the bass

D|----------------------------------------------------------------||
B|----------------------------------------------------------------||
G|-------------0-------------------------------------------------||
D|---0---------0--------------------0-------------------------||
G|---0----0----0--------0-----------0---0--------------------||
E|---3----3----3----3---3---3---3---3---3-0------------------------||

then the ryhthm swiches

Guitar 1
E|----------------------------------------------------------------||
B|---------------------------------------b5-------------------------||
G|----------------------------------------------------------------||
D|----------------------------------------------------------------||
A|---0---0---0---0---0--------0-----0-----------------------------------||
E|---3-3-3-3-3-3-3-3-3--3--3--3--3--3--0-----------------------------------------||
i make my runs around the break of day...

guitar 2 palm mutes
D|----------------------------------------------------------------||
B|----------------------------------------------------------------||
G|----------------------------------------------------------------||
D|--0--0--0--0--0--0--0--0----0...............etc...-------------------------------------------||
G|--0--0--0--0--0--0--0--0----0...............------------------------------------------||
E|--0--0--0--0--0--0--0--0----0.................-----------------------------------------||

then second part goes in A

Guitar 1
E|----------------------------------------------------------------||
B|----------------------------------------------------------------||
G|----------------------------------------------------------------||
D|----------------------------------------------------------------||
A|-----7-----7----7----7----------------------------------------------||
E|--5--5--5--5--5-5-5--5--0---5--------------------------------------------||
they call me the back door santa..
guitar 2
D|----------------------------------------------------------------||
B|----------------------------------------------------------------||
G|--2-----2-----2--2--2-----------------------------------------------||
D|--2--2--2--2--2--2--2-------2------------------------------------------||
Gl--2--2--2--2--2--2--2--2----2-------------------------------------------||
E|--2--2--2--2--2--2--2--2----2-------------------------------------------||
then to D
Guitar 1
E|----------------------------------------------------------------||
B|----------------------------------------------------------------||
G|--7--7--7---7-------------------------------------------------------||
D|--7--7--7---7-------------------------------------------------------||
A|--5--5--5---5-------------------------------------------------------||
E|---------------/3-------------------------------------------------||
make all the girls happy...guitar stops when all the boys are out to play
guitar 2
D|----------------------------------------------------------------||
B|----------------------------------------------------------------||
G|----7-7-----7----------------------------------------------------||
D|--7-7-7-----7-------------------------------------------------------||
G|--7-7-7-----7-------------------------------------------------------||
E|--7-7-7-----7---/0----------------------------------------------------||

then verse goes agian

guitar one in G

E|-3---3---3---3---3---3---3-----3---3---3---3---3---3---3-----------------------------------||
B|-3---3---3---3---3---3---3-----3---3---3---3---3---3---3-----------------------------------||
G|-4---4---4---4---4---4---4-----4---4---4---4---4---4---4-----------------------------------||
D|-5---5---5---5---5---5---5--3/-5---5---5---5---5---5---5---5-----/5b-----------------------------||
A|-5---5---5---5---5---5---5--3/-5---5---5---5---5---5---5--3--3-0---------------------------------||
E|----------------------------------------------------------------||
i aint like old saint nick he dont come once a year..

at the same time guitar 2 is goin
at same pace as the bass agian

D|----------------------------------------------------------------||
B|----------------------------------------------------------------||
G|-------------0-------------------------------------------------||
D|---0---------0--------------------0-------------------------||
G|---0----0----0--------0-----------0---0--------------------||
E|---3----3----3----3---3---3---3---3---3-0------------------------||

then the ryhthm swiches

Guitar 1
E|----------------------------------------------------------------||
B|---------------------------------------b5-------------------------||
G|----------------------------------------------------------------||
D|----------------------------------------------------------------||
A|---0---0---0---0---0--------0-----0-----------------------------------||
E|---3-3-3-3-3-3-3-3-3--3--3--3--3--3--0-----------------------------------------||
i make my runs around the break of day...

guitar 2 palm mutes
D|----------------------------------------------------------------||
B|----------------------------------------------------------------||
G|----------------------------------------------------------------||
D|--0--0--0--0--0--0--0--0----0...............etc...-------------------------------------------||
G|--0--0--0--0--0--0--0--0----0...............------------------------------------------||
E|--0--0--0--0--0--0--0--0----0.................-----------------------------------------||

then second part goes in A

Guitar 1
E|----------------------------------------------------------------||
B|----------------------------------------------------------------||
G|----------------------------------------------------------------||
D|----------------------------------------------------------------||
A|-----7-----7----7----7----------------------------------------------||
E|--5--5--5--5--5-5-5--5--0---5--------------------------------------------||
i aint like old saint Nick...
guitar 2
D|----------------------------------------------------------------||
B|----------------------------------------------------------------||
G|--2-----2-----2--2--2-----------------------------------------------||
D|--2--2--2--2--2--2--2-------2------------------------------------------||
Gl--2--2--2--2--2--2--2--2----2-------------------------------------------||
E|--2--2--2--2--2--2--2--2----2-------------------------------------------||
then to D
Guitar 1
E|----------------------------------------------------------------||
B|----------------------------------------------------------------||
G|--7--7--7---7-------------------------------------------------------||
D|--7--7--7---7-------------------------------------------------------||
A|--5--5--5---5-------------------------------------------------------||
E|---------------/3-------------------------------------------------||
i come runnin with my presents...
guitar 2
D|----------------------------------------------------------------||
B|----------------------------------------------------------------||
G|----7-7-----7----------------------------------------------------||
D|--7-7-7-----7-------------------------------------------------------||
G|--7-7-7-----7-------------------------------------------------------||
E|--7-7-7-----7---/0----------------------------------------------------||

then the chorus goes like intro
Guitar 1#

  G
E|---3------3-------||
B|---0------0-------||
G|---0------0-------||
D|---0------0-------||
A|---2------2-------||
E|---3------3-------||
i keep some change in my pocket...

E|----------------||
B|----------------||
G|-10-10--10-----------||
D|-10-10--10------------||
A|-8--8---8----------||
E|----------------||


  C5
E|----------------||
B|----------------||
G|-5--5---5-----------||
D|-5--5---5------------||
A|-3--3---3------------||
E|----------------||
chace the children home..

guitar 2 plays a snakey blues rhythm along with guitar 1

D|-0---------------||
B|-0---------------||
G|-0---------------||
D|-0---------------||
G|-0---------------||
E|----------------||


D|----------------||
B|----------------||
G|-10---------------||
D|-10---------------||
G|-10-10--------------||
E|----------------|

|


D|----------------||
B|----------------||
G|-5-5--------------||
D|-5-5--------------||
G|-5-5-0-------------||
E|----------------||

the next 3 times

D|-0---------------||
B|-0---------------||
G|-0---------------||
D|-0---------------||
G|-0---------------||
E|----------------||


D|----------------||
B|----------------||
G|-10---------------||
D|-10---------------||
G|-10---------------||
E|----------------|




D|----------------||
B|----------------||
G|-5--------b5/77-------||
D|-5---------------||
G|-5--5-0-----------||
E|----------------||


the rest of lyrics and order of the verse
 ya have ta listen to the record a few times
i think chous goes twice then verse one more then chorus
two more then end.. but ya better check man yeah!!

and remember guitars one and 2 always play to each other and switch off

in and out of each other from rythm to lead!!!!!yeah let the
blues live on baby!!!!!!!!!!!!!!!


Jet albums
2004 Rare Tracks
2003 Get Born
Rare Tracks tabs
03Sgt. Major tabbass tab
07Back Door Santa tabbass tab

 

1