Search tabs:
Browse artists: 0-9 | A | B | C | D | E | F | G | H | I | J | K | L | M | N | O | P | Q | R | S | T | U | V | W | X | Y | Z
/ / / guitar tab

JOHN LENNON - WOMAN
Submitted By: joel

Tabbed By: joel garrigan
Email: garrigan@lineone.net

Tuning: Standard (E A D G B E)



WOMAN JOHN LENNON CAPO 1ST FRET (all chords are tabbed counting
from the capo)

chords used:                  lyrics(with chords):

Dsus4                   INTRO:|Dsus  D |Dsus2  D|Dsus4  D|Dsus2  D||
                        VERSE 1:
E|----|--------|--4---||   D     Em7    F#m          Em7
B|----|--------|--3---||   Woman  I can hardly express
G|----|--1-----|------||   D           Bm           Em           Asus4 A
D|----|--------|------||     My mixed emotions at my thoughtlessness
A|----|--------|------||   G         Em7      F#m           Asus4  A
E|----|--------|------||    after all I'm forever in your debt
                             D       Em7     F#m       Em7
                          and woman, I will try to express
D                         D          Bm           Em          Asus4 A
                            my inner feelings and thankfullness
E|----|--2----|-------||  G            Em7     F#m          G/A   A
B|----|-------|---3---||   for showing me the meaning of sucsess.
G|----|--1----|-------||CHORUS 1:
D|----|-------|-------||  Dmaj9  Bm7        Em7
A|----|-------|-------||   ooh,       well,well,
E|----|-------|-------||                A6
                           doo doo doo, doo doo
Dsus2                     Dmaj9  Bm7        Em7
                          ooh         well,well
E|----|-------|-------||                A6
B|----|-------|---3---||   doo doo doo, doo doo
G|----|---1---|-------||VERSE 2:
D|----|-------|-------||  D      Em7        F#m     Em7
A|----|-------|-------||  woman, i know you understand
E|----|-------|-------|| D            Bm      Em         Asus4  A
                          the little child inside the man
Em7                      G           Em7      F#m             Asus4 A
                          please remember my life is in your hands
                              D    Em7      F#m             Em7
E|----|-------|-------|| and woman hold me close to your heart
B|----|-------|---3---||  D        Bm            Em        Asus4 A
G|----|-------|-------||  however distant don't keep us apart
D|----|---2---|-------|| G       Em7       F#m            G/A   A
A|----|---1---|-------||  after all it is written in the stars
E|----|-------|-------||CHORUS 2:
                                  Dmaj9  Bm7        Em7
F#m                                 ooh,       well,well,
                                                 A6
                                    doo doo doo, doo doo
E|----|--1----|-------|-----|     Dmaj9  Bm7        Em7
B|----|--1----|-------|-----|       ooh,       well,well,
G|----|--1----|-------|-----|                    A6
D|----|--1----|-------|--4--|       doo doo doo, doo doo
A|----|--1----|-------|--3--|
E|----|--1----|-------|-----|VERSE 3:(note: key moved up half a step)
                            Eb    Fm7     Gm          Fm7
Bm                          woman please let me explain
                            Eb    Cm                      Fm        Bbsus4 Bb
                              i never meant to cause you sorrow or pain
E|---|--1---|-------|-------| Ab          Fm7      Gm                  Ab/Bb
B|---|--1---|---2---|-------|  so let me tell you again and again and again
G|---|--1---|-------|--4----|
D|---|--1---|-------|--3----|CHORUS 3: REPEAT TO FADE
A|---|--1---|-------|-------|    Ebmaj9 Cm7        Fm7           Bb6
E|---|--1---|-------|-------|    I love  you yeah yeah now and forever,
                                 Ebmaj9 Cm7        Fm7           Bb6
Em                               i love  you yeah yeah now and forever

E|----|-----||
B|----|-----||
G|----|-----||
D|----|-2---||
A|----|-1---||
E|----|-----||

Asus4

E|---|-----|----||
B|---|-----|-3--||
G|---|--2--|----||
D|---|--1--|----||
A|---|-----|----||
E|---|-----|----||

A

E|---|----|-----||
B|---|-3--|-----||
G|---|-2--|-----||
D|---|-1--|-----||
A|---|----|-----||
E|---|----|-----||

G


E|-----|----|-3-||
B|-----|----|---||
G|-----|----|---||
D|-----|----|---||
A|-----|-1--|---||
E|-----|----|-2-||

G/A
   FR3
E|-x--|------|------||
B|-1--|------|------||
G|----|---2--|------||
D|----|------|---4--||
A|----|------|---x--||
E|----|------|---3--||

Dmaj9
  fr4
E|-x--|------|------||
B|----|--3---|------||
G|----|------|--4---||
D|-1--|------|------||
A|----|--2---|------||
E|-x--|------|------||

Bm7

E|---|--1---|-------|-------|
B|---|--1---|---2---|-------|
G|---|--1---|-------|-------|
D|---|--1---|-------|---3---|
A|---|--1---|-------|-------|
E|---|--1---|-------|-------|

A6

E|---|-1--|-----||
B|---|-1--|-----||
G|---|-1--|-----||
D|---|-1--|-----||
A|---|----|-----||
E|---|----|-----||

Eb

E|----|-------|--3-|---||
B|----|-------|----|-4-||
G|----|-------|--2-|---||
D|-1--|-------|----|---||
A|----|-------|----|---||
E|----|-------|----|---||
OR
  FR3
E|-1--|----|---|-----||
B|----|-2--|---|-----||
G|-1--|----|---|-----||
D|----|----|-3-|-----||
A|----|----|---|--4--||
E|----|----|---|--X--||

Fm7
E|----|--1----|-------|-----|
B|----|--1----|-------|-----|
G|----|--1----|-------|-----|
D|----|--1----|-------|-----|
A|----|--1----|-------|--3--|
E|----|--1----|-------|-----|

Gm
   fr3
E|--1----|-------|-----|
B|--1----|-------|-----|
G|--1----|-------|-----|
D|--1----|-------|--4--|
A|--1----|-------|--3--|
E|--1----|-------|-----|

Cm
   fr3
E|--1---|-------|-------|
B|--1---|---2---|-------|
G|--1---|-------|--4----|
D|--1---|-------|--3----|
A|--1---|-------|-------|
E|--1---|-------|-------|

Fm

E|--1----|-------|-----|
B|--1----|-------|-----|
G|--1----|-------|-----|
D|--1----|-------|--4--|
A|--1----|-------|--3--|
E|--1----|-------|-----|

Bbsus4

E|--1---|-------|-------|---|
B|--1---|-------|-------|-4-|
G|--1---|-------|--3----|---|
D|--1---|-------|--2----|---|
A|--1---|-------|-------|---|
E|--1---|-------|-------|---|

Bb

E|--1---|-------|-------|---|
B|--1---|-------|--4----|---|
G|--1---|-------|--3----|---|
D|--1---|-------|--2----|---|
A|--1---|-------|-------|---|
E|--1---|-------|-------|---|

Ab
   fr4
E|--1----|-------|-----|
B|--1----|-------|-----|
G|--1----|---2---|-----|
D|--1----|-------|--4--|
A|--1----|-------|--3--|
E|--1----|-------|-----|

Ab/Bb
   FR4
E|-x--|------|------||
B|-1--|------|------||
G|----|---2--|------||
D|----|------|---4--||
A|----|------|---x--||
E|----|------|---3--||

Ebmaj9
  fr5
E|-x--|------|------||
B|----|--3---|------||
G|----|------|--4---||
D|-1--|------|------||
A|----|--2---|------||
E|-x--|------|------||

Cm7
  fr3
E|--1---|-------|-------|
B|--1---|---2---|-------|
G|--1---|-------|-------|
D|--1---|-------|---3---|
A|--1---|-------|-------|
E|--1---|-------|-------|

Bb6

E|---|--|-3--|-----||
B|---|--|-3--|-----||
G|---|--|-3--|-----||
D|---|--|-3--|-----||
A|-1-|--|----|-----||
E|-x-|--|----|-----||


albums
tabs

 

1