Search tabs:
Browse artists: 0-9 | A | B | C | D | E | F | G | H | I | J | K | L | M | N | O | P | Q | R | S | T | U | V | W | X | Y | Z
/ Killswitch Engage / The End of Heartache (2004) / World Ablaze guitar tab

Song - World Ablaze
Artist - Killswitch Engage
Album - The End of Heartache
Tabbed by - Silent_warrior_@hotmail.com

PM - Palm mute
/ - Slide up
\ - Slide down
p - Pull off
% - Rest



Intro Guitar 1
|-------------------------------------------------|
|-------------------------------------------------|
|-7-7---------7-7---------6-6---------6-6---------|
|-------------------------------------------------|
|-5-5---------5-5---------4-4---------4-4---------|
|-----2-0-2-0-----2-0-2-0-----1-0-1-0-----1-0-1-0-|
PM    . . . .     . . . .     . . . .     . . . .

|-----------------------------------------------------|
|-----------------------------------------------------|
|-10-10---------10-10---------9-9---------9-9---------|
|-----------------------------------------------------|
|--8--8----------8--8---------7-7---------7-7---------|
|-------2-0-2-0-------2-0-2-0-----1-0-1-0-----1-0-1-0-|
PM      . . . .       . . . .     . . . .     . . . .


Intro Guitar 2
|---------------------------------------------------------------------------|
|---------------------------------------------------------------------------|
|-7777777777777--6666666666666--10101010101010101010-12-12-12-12-9999999999-|
|---------------------------------------------------------------------------|
|-5555555555555--4444444444444---8-8-8-8-8-8-8-8-8-8-10-10-10-10-7777777777-|
|---------------------------------------------------------------------------|


Verse
|-------------------------------------------------|
|-------------------------------------------------|
|-7-7---------7-7---------6-6---------6-6---------|
|-------------------------------------------------|
|-5-5---------5-5---------4-4---------4-4---------|
|-----2-0-2-0-----2-0-2-0-----1-0-1-0-----1-0-1-0-|
PM    . . . .     . . . .     . . . .     . . . .

|-------------------------------------------------|
|-------------------------------------------------|
|-7-7---------6-6---------7-7---------7-7---------|
|-------------------------------------------------|
|-5-5---------4-4---------5-5---------5-5---------|
|-----2-0-2-0-----2-0-2-0-----1-0-1-0-----1-0-1-0-|
PM    . . . .     . . . .

|-------------------------------------------------|
|-------------------------------------------------|
|-6-6---------6-6---------7-7---------6-6---------|
|-------------------------------------------------|
|-4-4---------4-4---------5-5---------4-4---------|
|-----2-0-2-0-----2-0-2-0-----1-0-1-0-----1-0-1-0-|
PM    . . . .     . . . .     . . . .     . . . .

|-----------------------------------------------------|
|-----------------------------------------------------|
|-10-10---------10-10---------9-9---------9-9---------|
|-----------------------------------------------------|
|--8--8----------8--8---------7-7---------7-7---------|
|-------2-0-2-0-------2-0-2-0-----1-0-1-0-----1-0-1-0-|
PM      . . . .       . . . .     . . . .     . . . .

|-------------------------------------------------------|
|-------------------------------------------------------|
|-10-10---------9-9---------10-10---------10-10---------|
|-------------------------------------------------------|
|--8--8---------7-7----------8--8----------8--8---------|
|-------2-0-2-0-----2-0-2-0-------1-0-1-0-------1-0-1-0-|
PM      . . . .     . . . .       . . . .       . . . .

|---------------------------------------------------|
|---------------------------------------------------|
|-9-9---------9-9---------10-10---------9-9---------|
|---------------------------------------------------|
|-7-7---------7-7----------8--8---------7-7---------|
|-----2-0-2-0-----2-0-2-0-------1-0-1-0-----1-0-1-0-|
PM    . . . .     . . . .       . . . .     . . . .

|--------------------------------------------------------------------|
|--------------------------------------------------------------------|
|--------------------------------------------------------------------|
|--------------------------------------------------------------------|
|-4-1-------1-4-------4-1-------1-4-------4-1------------3-5/7\5-3/5-|
|-4-1-0-0-0-1-4-0-0-0-4-1-0-0-0-1-4-0-0-0-4-1-0-0-0-0-0--------------|
PM    . . .     . . .     . . .     . . .     . . . . .

|--------------------------------------------------------------------|
|--------------------------------------------------------------------|
|--------------------------------------------------------5-7/9\7-5/7-|
|--------------------------------------------------------------------|
|---------------%---------------1-4----------%-----------------------|
|-------------------------------1-4----------------------------------|


|--------------------------------------------------------------------|
|--------------------------------------------------------------------|
|--------------------------------------------------------------------|
|--------------------------------------------------------------------|
|-4-1-0-0-0-1-4-0-0-0-4-1-0-0-0-1-4-0-0-0-4-1-0-0-0-0-0--3-5/7\5-3/5-|
|-4-1-0-0-0-1-4-0-0-0-4-1-0-0-0-1-4-0-0-0-4-1-0-0-0-0-0--------------|
PM    . . .     . . .     . . .     . . .     . . . . .

|--------------------------------------------------------------------|
|--------------------------------------------------------------------|
|--------------------------------------------------------5-7/9\7-5/7-|
|--------------------------------------------------------------------|
|-4-1-0-0-0-1-4-0-0-0-4-1-0-0-0-1-4-0-0-0-4-1-0-0-0-0-0--------------|
|-4-1-0-0-0-1-4-0-0-0-4-1-0-0-0-1-4-0-0-0-4-1-0-0-0-0-0--------------|
PM    . . .     . . .     . . .     . . .     . . . . .

|--------------------------------------------------------------------|
|--------------------------------------------------------------------|
|--------------------------------------------------------------------|
|--------------------------------------------------------------------|
|-4-1---%---1-4---%---4-1---%---1-4---%---4-1--%--0------3-5/7\5-3/5-|
|-4-1-------1-4-------4-1-------1-4-------4-1-----0-0-0--------------|
PM                                                  . .


|--------------------------------------------------------------------|
|--------------------------------------------------------------------|
|--------------------------------------------------------5-7/9\7-5/7-|
|--------------------------------------------------------------------|
|-4-1---%---1-4---%---4-1---%---1-4---%---4-1--%--0------------------|
|-4-1-------1-4-------4-1-------1-4-------4-1-----0-0-0--------------|
PM                                                  . .

|-----------------------------------------|
|-----------------------------------------|
|-----------------------------------------|
|-----------------------------------------|
|-000-0-0-0-000-0-0-0-000-0-0-0-000-0-0-0-|
|-000-0-0-0-000-0-0-0-000-0-0-0-000-0-0-0-|
PM... . . . ... . . . ... . . . ... . . .


Guitar 1
|-----------------------------------------------|
|-----------------------10----------10----------|
|--------------------------10----10----10----10-|
|-----------------------------10----------10----|
|-0------0--0-0------0--------------------------|
|-0--0-0-0--0-0--0-0-0--------------------------|
PM   . .         . .

Guitar 2
|-----------------------------------|
|-----------------------------------|
|-----------------------5------3----|
|-----------------------5------3----|
|-0------0--0-0------0--3------1----|
|-0--0-0-0--0-0--0-0-0--------------|
PM   . .         . .

Guitar 1
|-----------------------------------------------|
|-----------------------10----------10----------|
|--------------------------10----10----10----10-|
|-----------------------------10----------10----|
|-0------0--0-0------0--------------------------|
|-0--0-0-0--0-0--0-0-0--------------------------|
PM   . .         . .

Guitar 2
|-----------------------------------|
|-----------------------------------|
|-----------------------------------|
|-----------------------------------|
|-0------0--0-0------0---5-----1----|
|-0--0-0-0--0-0--0-0-0---5-----1----|
PM   . .         . .

Chorus Guitar 1
|--------------------------------------------|
|--------------------------------------------|
|--------------------------------------------|
|--------------------------------------------|
|-5---5---3-5-5/8-7-5--5---3---3-5-5/8-7-5-5-|
|--------------------------------------------|


Chorus Guitar 1
|------------------|
|------------------|
|------5-----3-----|
|------5-----3-----|
|-0----3-----1-----|
|-0----------------|



Chorus Guitar 1
|--------------------------------------------|
|--------------------------------------------|
|--------------------------------------------|
|--------------------------------------------|
|-5---5---3-5-5/8-7-5--5---3---3-5-5/8-7-5-5-|
|--------------------------------------------|


Chorus Guitar 2
|--------------------------------------------|
|--------------------------------------------|
|--------------------------------------------|
|-3---3---2-3-3/6-5-3--3---2---2-3-3/6-5-3-3-|
|--------------------------------------------|
|--------------------------------------------|


|--------------------------------------------------------------------|
|--------------------------------------------------------------------|
|------------5--3--2--------11--9--8---------------------------------|
|------------5--3--2--------11--9--8---------------------------------|
|-0--0--0-0--3--1--0-0-0-0---9--7--6--0-0-0--5p3p0---5p3p0-----------|
|-0--0--0-0----------0-0-0------------0-0-0--------6-------6-5-3-2-3-|
PM      . .          . . .            . . .


|--------------------------------------------------|
|--------------------------------------------------|
|---------7-------5---3------------7---------------|
|---------7-------5---3------------7---------------|
|-0---0---5---0---3---1----0---0---5---0---5---1---|
|-0-0-0---0-0-0------------0-0-0---0-0-0---5---1---|
PM  .       .                .       .


Killswitch Engage albums
2004 The End of Heartache
2002 Alive or Just Breathing
2000 Killswitch Engage
The End of Heartache tabs
01A Bid Farewell tabbass tab
02Take This Oath tabbass tab
03When Darkness Falls tabbass tab
04Rose of Sharyn tabbass tab
05Inhale tabbass tab
06Breathe Life tabbass tab
07The End of Heartache tabbass tab
08Declaration tabbass tab
09World Ablaze tabbass tab
10And Embers Rise tabbass tab
11Wasted Sacrifice tabbass tab
12Hope Is... tabbass tab

 

1