Search tabs:
Browse artists: 0-9 | A | B | C | D | E | F | G | H | I | J | K | L | M | N | O | P | Q | R | S | T | U | V | W | X | Y | Z
/ KMFDM / Angst (1993) / A Drug Against War guitar tab

#
KMFDM
A Drug Against War
album:Angst, and the single
             Here's another easy kick ass songby KMFDM, I couldn't
        get one part excatly right, so I didn't put it in, but
        this should be right.
Kevin Krause
email:hassib@gwis2.circ.gwu.edu
x=palm mute
~=vibrato
                     2x
e:-----------------|------------------------|---------------|
B:-----------------|------------------------|---------------|
G:-----------------|------------------------|----------7--7-|
D:-----------------|------------------------|----------7--7-|
A:-------------5--7|-------------------5--7-|----------5--5-|
E:-0--0--0--0------|-0--0--0--0--0--0-------|-0--0--0-------|
   x  x  x  x        x  x  x  x  x  x         x  x  x




e:----------------------------------------------------|
B:----------------------------------------------------|
G:----------------------------------------------------|
D:---------------------------------5\4-----5\4-----2~-|
A:---------------------------------5\4-----5\4--------|
E:---0--0-0-0-0--0--0--0--0--0--0--3\2--0--3\2--0-----|
     x  x x x x  x  x  x  x  x  x

                                                           


e:--------------------------------------------------------|
B:--------------------------------------------------------|
G:--------------------------------------------------------|
D:------------------------------------------------5--4\3--|
A:------------------------------------------------5--4\3--|
E:---0--0-0-0-0--0--0--0--0--0--0--0--0--0--0--0--3--2\1--|
     x  x x x x  x  x  x  x  x  x  x  x  x  x  x




e:----------------------------------------------------------------------|
B:----------------------------------------------------------------------|
G:---------------------------9-------------10-------------9-------9-----|
D:---------------------------9-------------10-------------9-10-9--9--9--|
A:---------------------------7--------------8-------------7-10-9--7--9--|
E:---------------0--0--0--0-----0--0--0--0----0--0--0--0-----8-7-----7--|
                 x  x  x  x     x  x  x  x    x  x  x  x

                                                                  

                                      1st time
e:----------------------------------|----------------------------|
B:----------------------------------|--5h6h5h6-------------------|
G:--------------9-------------10-9--|-----------4h5h4h5----------|
D:--------------9-------------10-9--|--------------------4h5h4h5-|
A:--------------7--------------8-7--|----------------------------|
E:--0--0--0--0-----0--0--0--0-------|----------------------------|
    x  x  x  x     x  x  x  x

                                        

  2nd time
e:-------------------------------------|
B:--5h6h5h6----------------------------|
G:-----------4h5h4h5-------------------|
D:--------------------4h5h4h5----------|
A:-----------------------------4h5h4h5-|
E:-------------------------------------|

e:-----------------------------------|--------------------------------------|
B:-----------------------------------|--------------------------------------|
G:--10------10------10------10----7--|-10------10------10------10----7--9---|
D:--10------10------10------10----7--|-10------10------10------10----7--9--2|
A:---8-------8-------8-------8----5--|--8-------8-------8-------8----5--7--2|
E:-----0--0----0--0----0--0----0-----|----0--0----0--0----0--0----0-----0--0|

TELEVISION, RELIGON,

SOCIAL DESTRUCTION

SEX & DRUGS

VIOLENT SEDUCTION

CRYSTAL DAWN

ECSTATIC EXPLOSION

PARENTAL ADVICE LEADS

TO MENTAL EROSION

LINE AFTER LINE

ROUND AFTER ROUND

EMPTY SHELLS FALL

TO THE GROUND

FASTER THAN LIGHTNING

HIGH AS A KITE

SONIC BOMBARDMENT

BRIGHTER THAN SUNLIGHT

NO NEED FOR NEEDLES

NO INJECTION

THE SUBSTANCE SUBSTITUTES

LOVE & AFFECTION

TOTAL SEDATION OF

LONGING DESIRE

CREMATION OF SENSES

IN FRIENDLY FIRE

STRONGER THAN NEVER

EVER BEFORE

KMFDM IS

ADRUGAGAINSTWAR


KMFDM albums
2003 WWIII
2002 Attak
1999 Adios
1998 Agogo
1997 Symbols
1996 XTORT
1995 Nihil
1993 Angst
1989 UAIOE
Angst tabs
01Light tabbass tab
02A Drug Against War tabbass tab

 

1