Search tabs:
Browse artists: 0-9 | A | B | C | D | E | F | G | H | I | J | K | L | M | N | O | P | Q | R | S | T | U | V | W | X | Y | Z
/ K's Choice / Great Subconscious Club (1994) / Breakfast guitar tab

INTRO:
 G           G/F          G/E         G/B
|---3-----3-----3-----3--|---3-----3-----3-----3--|	(2x)
|---3-----3-----3-----3--|---3-----3-----3-----3--|
|---0-----0-----0-----0--|---0-----0-----0-----0--|
|------------------------|------------------------|
|------------------------|------------3-----3-----|
|3-----3-----2-----2-----|0-----0-----------------|

VERSE: (repeat intro until last line before chorus)

  G               G/F      G/E
I woke up between dawn and night
G/B                 G         G/F       G/E      G/B
Thought I heard the voice of mommy
Sounds as if my parents have a fight
So I woke up my brother lying next to me

I wonder why she's making all that noise
Better go and check it out
So without trying to breathe, only the sound of little feet

 G           G/F          G/E         G/B   G/Bb
|---3-----3-----3-----3--|---3-----3-----3-----3--|
|---3-----3-----3-----3--|---3-----3-----3-----3--|
|---0-----0-----0-----0--|---0-----0-----0-----0--|
|------------------------|------------------------|
|------------------------|------------3-----2-----|
|3-----3-----2-----2-----|0-----0-----------------|
We're about to discover what that noise was all about, and

CHORUS:
 Am          Am/G  Am     D/F#
|---0-----0-----0-----0--|---2-----2-----2-----2--|
|---1-----1-----1-----1--|---3-----3-----3-----3--|
|---2-----2-----2-----2--|---2-----2-----2-----2--|
|------------------------|------------------------|
|0-----0-----------------|------------------------|
|------------3-----0-----|2-----2-----2-----2-----|
As we opened up the door, we

 G           G/F          G/E         G/B   G/Bb
|---3-----3-----3-----3--|---3-----3-----3-----3--|
|---3-----3-----3-----3--|---3-----3-----3-----3--|
|---0-----0-----0-----0--|---0-----0-----0-----0--|
|------------------------|------------------------|
|------------------------|------------3-----2-----|
|3-----3-----2-----2-----|0-----0-----------------|
Saw them lying on the kitchen floor, we were

 Am          Am/G  Am     D/F#
|---0-----0-----0-----0--|---2-----2-----2-----2--|
|---1-----1-----1-----1--|---3-----3-----3-----3--|
|---2-----2-----2-----2--|---2-----2-----2-----2--|
|------------------------|------------------------|
|0-----0-----------------|------------------------|
|------------3-----0-----|2-----2-----2-----2-----|
Grateful for they both did their best, but we said

 ?                Em          Em/F#
|---1-----1-----1-----1--|---0-----0-----0-----0--|
|---0-----0-----0-----0--|---0-----0-----0-----0--|
|---0-----0-----0-----0--|---0-----0-----0-----0--| + 2x INTRO
|------------------------|------------------------|
|------------------------|------------------------|
|1-----1-----1-----1-----|0-----0-----0-----2-----|
Hey, there must be an easier way to make breakfast


after chorus end with G (320033)


K's Choice albums
1998 Cocoon Crash
1996 Paradise In Me
1994 Great Subconscious Club
Great Subconscious Club tabs
02Breakfast tabbass tab
06My Heart tabbass tab

 

1