Search tabs:
Browse artists: 0-9 | A | B | C | D | E | F | G | H | I | J | K | L | M | N | O | P | Q | R | S | T | U | V | W | X | Y | Z
/ / / guitar tab

Stokin' The Neighbors
Lagwagon

intro:
e-|---------|---------------------------------------------------------------
B-|---------|---------------------------------------------------------------
G-|---------|-9-9-9-11-11-11-12-12-12-14-14-14-16-16-16-14-14-14-12-12-12---
D-|-----4-5-|-x-x-x--x--x--x-xx-xx-xx-xx-xx-xx-xx-xx-xx-xx-xx-xx-xx-xx-xx---
A-|-4-5-2-3-|-7-7-7--9--9--9-10-10-10-12-12-12-14-14-14-12-12-12-10-10-10---
E-|-2-3-----|---------------------------------------------------------------

e-|-------------------------------------------------------------------------
B-|-------------------------------------------------------------------------
G-|-11-11-11-9-9-9-11-11-11-12-12-12-14-14-14-16-16-16-14-14-14-12-12-12----
D-|--x--x--x-x-x-x--x--x--x-xx-xx-xx-xx-xx-xx-xx-xx-xx-xx-xx-xx-xx-xx-xx----
A-|--9--9--9-7-7-7--9--9--9-10-10-10-12-12-12-14-14-14-12-12-12-10-10-10----
E-|-------------------------------------------------------------------------

e-|----------|
B-|----------|
G-|-11-11-11-|
D-|--x--x--x-|
A-|--9--9--9-|
E-|----------|
Verse:
e-|-------------------------------------------------------------------------
B-|-------------------------------------------------------------------------
G-|-------------------------------------------------------------------------
D-|-9-9-7-9-9-7-9-9-7-9-9-7-9-9-7-9-9-7-9-9-7-------5-5-4---7-5-4---9-9-7---
A-|-7-7-5-7-7-5-7-7-5-7-7-5-7-7-5-7-7-5-7-7-5-----3-3-----5-5-----5-7-7-5---
E-|-------------------------------------------3-5---------------------------

e-|----------------------------------------------------------------|
B-|---------------------------------------------------8-10-12-10---|
G-|------------------------------------------7-9-11-9------------9-|
D-|-9-9-7-9-9-------------2--4--5----5-7-9-9-----------------------|
A-|-7-7-5-7-7-1-0---2--5--0--2--3--5-------------------------------|
E-|---------------3-0--3-----------3-------------------------------|
chorus:
e-|-------------------------------------------------------------------------
B-|-------------------------------------------------------------------------
G-|----------------------------------------------------------9-9-9-8-8-8----
D-|----------------2-2-2------------5-5-5-5-5-4-4-4----------x-x-x-x-x-x----
A-|-2--2-4-5-5-5-5-0-0-0-1-0------2-3-3-3-3-3-2-2-2-3-2-0--2-7-7-7-6-6-6----
E-|-0--0-2-3-3-3-3-----------3-0--0------------------------0----------------

e-|--------------------------------------------------|
B-|--------------------------------------------------|
G-|-7-7-7--------------------------------------------|
D-|-x-x-x---------2-2-2------------5-5-5-5-4-4-4-4-9-|
A-|-5-5-5-5-5-5-5-0-0-0-1-0------2-3-3-3-3-2-2-2-2-7-|
E-|-------3-3-3-3-----------3-0--0-------------------|
2nd time that you go to the intro you don't play it as long but you'll figure 
when to stop quite easily on your own.
bridge:
e-|-----------------------------------------|
B-|-----------------------------------------|
G-|-----------------------------------------|
D-|-----------------------------------------|
A-|-5--2-2-2-5-5--2-2-2-5--2-2-2-5-5--------|
E-|-3^-0-0-0-3-3^-0-0-0-3^-0-0-0-3-3^---etc-|
I remember theres a finger picking part during the bridge but unfortunatly for 
me my cd skips from about the first couple seconds of the bridge until the 
spoken word at the end of the song... sucks to be me...


albums
tabs

 

1