Search tabs:
Browse artists: 0-9 | A | B | C | D | E | F | G | H | I | J | K | L | M | N | O | P | Q | R | S | T | U | V | W | X | Y | Z
/ Leftover Crack / Fuck World Trade (2004) / One Dead Cop guitar tab

Leftover Crack: One Dead Cop

I saw no one did this tab right, so I did it.
I got parts from other tabs but the intro
and bridge have always been wrong.  Anyhow here it is.
There are little switch ups and such in the intro that
I didn't deem necessary and you all can improvise if you want.
I think thats it.
If there are any problems, you figure it out.


    Intro:
E  :--------------------------|
B  :--------------------------|
G  :9-------------6-8-9-------|
D  :x-7-9-11---11-x-x-x-------|
A  :7-x-x--x----x-4-6-7-------|
E  :--5-7--9----9-------------|
   (Figure Out Muting)
E  :--------------------------|
B  :--------------------------|
G  :------9-------------------|
D  :-----9-9------------------|
A  :----7---------------------|
E  :--------------------------|
    (Played During Clean Portion)
=============================================================================

    Verse:
E  :----------------|
B  :----------------|
G  :9---6-----------|
D  :9-7-6-7---------|
A  :7-7-4-7---------|
E  :--5---5---------|


=============================================================================
    Bridge 1 (x2):           Bridge 2 (x1)
E  :------------------------|------------------------------|
B  :------------------------|------------------------------|
G  :6--9-8-6----9-13-11-9---|6--9-8-6---9-13-11-9-8-10-8-12|
D  :x--x-x-x-7--x--x--x-x-9-|x--x-x-x-7-x--x--x-x-x--x-x--x|
A  :4--7-6-4-7--7-11--9-7-9-|4--7-6-4-7-7-11--9-7-6--8-6-10|
E  :---------5------------7-|---------5--------------------|
            pm           pm          pm

=============================================================================
    Bridge 3 (x1):
E  :-------------------------|
B  :-------------------------|
G  :6--9-8-6---9-9-13-11-9---|
D  :x--x-x-x-7-x-x--x--x-x-9-|
A  :4--7-6-4-7-7-7-11--9-7-9-|
E  :---------5-------------7-|



=============================================================================
    Chorus
E  :------------------------|
B  :------------------------|
G  :9-----------6-8-9-------|
D  :x-7-9-11-11-x-x-x-------|
A  :7-x-x--x--x-4-6-7-------|
E  :--5-7--9--9-------------|


=============================================================================
    Bridge 1 (x2):           Bridge 2 (x1):
E  :------------------------|------------------------------|
B  :------------------------|------------------------------|
G  :6--9-8-6----9-13-11-9---|6--9-8-6---9-13-11-9-8-10-8-12|
D  :x--x-x-x-7--x--x--x-x-9-|x--x-x-x-7-x--x--x-x-x--x-x--x|
A  :4--7-6-4-7--7-11--9-7-9-|4--7-6-4-7-7-11--9-7-6--8-6-10|
E  :---------5------------7-|---------5--------------------|



=============================================================================
    Bridge 3 (x1):
E  :-------------------------|
B  :-------------------------|
G  :6--9-8-6---9-9-13-11-9---|
D  :x--x-x-x-7-x-x--x--x-x-9-|
A  :4--7-6-4-7-7-7-11--9-7-9-|
E  :---------5-------------7-|


=============================================================================

E  :------------------------|
B  :------------------------|
G  :9-----------6-8-9-------|
D  :x-7-9-11-11-x-x-x-------|
A  :7-x-x--x--x-4-6-7-------|
E  :--5-7--9--9-------------|
    (Figure Out Muting)
E  :------------------------|
B  :------------------------|
G  :--9---------------------|
D  :-9-9--------------------|
A  :7-----------------------|
E  :------------------------|
    (During Clean Part)


Leftover Crack albums
2004 Fuck World Trade
2001 Mediocre Generica
Fuck World Trade tabs
02Life Is Pain tabbass tab
03Burn Them Prisons tabbass tab
04Gang Control tabbass tab
05Super Tuesday tabbass tab
06Via Sin Dios tabbass tab
08One Dead Cop tabbass tab
10Rock the 40 Oz. tabbass tab
11Soon We'll Be Dead tabbass tab
13Operation: M.O.V.E. tabbass tab

 

1